Tom Morello - Face Off Chords & Tabs

 

Face Off Chords & Tabs

Tom Morello Chords & Tabs

Version: 2 Type: Tab 0 ratings
1 star 2 stars 3 stars 4 stars 5 stars
comments

Face Off Tab

-----------------------------------------------------------------------------
			     Face Off - Tom Morello
-----------------------------------------------------------------------------
Tabbed by: Sébastien
Email: sebastien_baumann@hotmail.com

Tuning: D tuning (DADGBE) but you could also try to play it (EbADGBE) or even
differant tuning but I stick to the D-tuning. i just tabed the notes, im sure
you can work out the rhythm.

e|-------------------------------------------|
B|-------------------------------------------|
G|-------------------------------------------|
D|-----------------------------------4---6---|
A|-6-6---------------4-----6-6-------4---6---|
D|-----6-4-1-6-4-1-4---6-1-----6-4-1-4---6---|
[ Tab from: http://www.guitartabs.cc/tabs/t/tom_morello/face_off_tab_ver_2.html ]
e|-------------------------------------------------|
B|-------------------------------------------------|
G|-------------------------------------------------|
D|-----------------------------------6-4-----------|
A|-6-6---------------4-----6-6-----------6-4-------|
D|-----6-4-1-6-4-1-4---6-1-----6-4-1---------6-4-1-|

e|-------------------------------------------|
B|-------------------------------------------|
G|-------------------------------------------|
D|-----------------------------------4---6---|
A|-6-6---------------4-----6-6-------4---6---|
D|-----6-4-1-6-4-1-4---6-1-----6-4-1-4---6---|

e|---------------------------------------------------------|
B|---------------------------------------------------------|
G|---------------------------------------------------------|
D|-------------------------1-1-1-1-1-1-1-1-1-1-1-1-1-1-1-1-|
A|-6-6---------------4-----1-1-1-1-1-1-1-1-1-1-1-1-1-1-1-1-|
D|-----6-4-1-6-4-1-4---6-1-1-1-1-1-1-1-1-1-1-1-1-1-1-1-1-1-|
                          |------muted and use the wha-----|

Thats about all u need to play it, enjoy.
Comments