Tom Mcrae - Walking To Hawaii Chords & Tabs

 

Walking To Hawaii Chords & Tabs

Tom Mcrae Chords & Tabs

Version: 1 Type: Tab 0 ratings
1 star 2 stars 3 stars 4 stars 5 stars
comments

Walking To Hawaii Tab

   
Walking to hawaii
this song is amazin i have been playin it wrong for ages till i saw tom at the
irish club in birmingham he was fackin awsome, anyways i noticed no 1 else has
tabbed this tune and i know it full so thank me ps i was the 1 that shouted at
the gig 'tom i want ur babies so im sori if i disrupted any1's evening here's
how it goes

cap 9th fret finger picked

intro/verses
*c
e-------3------------3---------3---------------------------------------------
b----------1-1--------1-1-------1-1---0--1----1------------------------------
g-----0-----0-----0----0----2----2-----22---22-------------------------------
d----2-2---------2-2-------2-2-----------------------------------------------
a--3-----------2----------0--------------------------------------------------
e----------------------------------------------------------------------------

chorus
[ Tab from: http://www.guitartabs.cc/tabs/t/tom_mcrae/walking_to_hawaii_tab.html ]
e------0--------0---------1--------1----------------------------------------
b----1--1-1---1--1-1----1--1-1---1--1-1-------------------------------------
g---2-2--2---2-2--2----2-2--2---2-2--2--------------------------------------
d---------------------------------------------------------------------------
a--0--------0---------2--------2--------------------------------------------
e---------------------------------------------------------------------------

thats basically it heres the words if u wanna sing with it, any questions email
me indieradiohead@hotmail.com enjoy :) 

Lyrics:
Falling feels like flying
Until you hit the ground
And everything is beautiful
'Till you take a look around
So let it go

Turn the bow into the wave boys
I feel a storm coming in
And every bridge we build we burn
And never learn to swim
No we never learn to swim
So let it go

Lead me to the edge and watch
See how far we both can drop
Let it all just slip away
Let it fade

We'll walk to Hawaii
A final sunset on the waves
The perfect girl the perfect place
To watch the world go down in flames
Wouldn't that be a shame
So let it go

Lead me to the edge don't stop
Beauty always had a cost
And as the air slips from our lungs
We'll sing songs of love
Oh love, oh love...
Comments