Tom Green - Bum Bum Song Chords & Tabs

 

Bum Bum Song Chords & Tabs

Tom Green Chords & Tabs

Version: 1 Type: Tab 0 ratings
1 star 2 stars 3 stars 4 stars 5 stars
comments

Bum Bum Song Tab

                        Tom Green Bum Bum Song.
This is my first time ever tabbing anything, I am new at the guitar, so I hope that this is about right, 
sounds pretty good to me.

||----------------------------------------------------------------------|
||----------------------------------------------------------------------|
||*---------------------------------------------------------------------|
||*---------------------------------------------------------------------|
||---------0--------0--2--2--2--3--0--0--------0--------0--2--2--2------|
||---0--0-----0--0-----------------------0--0-----0--0------------------|

------------------------------------------------------------------------|
------------------------------------------------------------------------|
------------------------------------------------------------------------|
------------------------------------------------------------------------|
3--0--0--2--3--3--3--3--3--0--2--3--5--5--5--5--5--0--2--3--3--3--3-----|
------------------------------------------------------------------------|


                            3x
----------------------------||------------------------------------------|
----------------------------||------------------------------------------|
---------------------------*||------------------------------------------|
---------------------------*||------------------------------------------|
3--3--0--0--2--2--2--2--5---||------------------------------------------|
----------------------------||------------------------------------------|

[ Tab from: http://www.guitartabs.cc/tabs/t/tom_green/bum_bum_song_tab.html ]
========================================================================
==                       TABLATURE EXPLANATION                        ==
========================================================================

----------                ----------                ----t---|
----5h8--- Hammeron       ----(8)--- Ghost          ----6---| Tap
----------                ---------- Note           --------|
----5p8--- Pulloff        ----------                --------|

----------                ----------                -----p--|
----5/8--- Slide Up       -----x---- Dead           -----7--| Pop
----------                ---------- Note           --s-----|
----5\8--- Slide Down     ----------                --5-----| Slap

----------                ||------|| Repeat         --------|
----5~~~-- Vibrato        ||*----*||                ---5^---| Bend
----------                ||*----*||                --------|
----------                ||------||                --------|

----------                ----------                --------|
-4:------- Time           ----------                --------|
-4:------- Signature      ----------                --------|
----------                ----------                --------|

========================================================================
==            Created with a demo version of BUCKET O' TAB            ==
==              tablature creation software for Windows               ==
==                  For more info email gse@his.com                   ==
========================================================================
Comments