Tom Delong - First Date Chords & Tabs

 

First Date Chords & Tabs

Tom Delong Chords & Tabs

Version: 1 Type: Tab 1 rating
1 star 2 stars 3 stars 4 stars 5 stars
comments

First Date Tab

Intro (x2)
e|--------------------------------------------------------------------|
B|-2------------------------------------------------------------------|
G|--2-2-2-2-2-2-2-4-2-2-2-2-2-2-2-4-2-2-2-2-2-2-2-2-4-2-1-------------|
D|--------------------------------------------------------------------|
A|--------------------------------------------------------------------|
E|--------------------------------------------------------------------|
[ Tab from: http://www.guitartabs.cc/tabs/t/tom_delong/first_date_tab.html ]
Verse
e|--------------------------------------------------------------------|
B|--------------------------------------------------------------------|
G|-2(let ring)----------4-4-4-----------------------------------------|
D|----------------------4-4-4—(kicks in about halfway through verse)--|
A|----------------------2-2-2-----------------------------------------|
E|----------------------x-x-x-----------------------------------------|
   
Chorus
e|--------------------------------------------------------------------|
B|--------------------------------------------------------------------|
G|-4-4-4--3-3-3---------------------------------------4-4-4-4-4-4-4-4-|
D|-4-4-4--4-4-4--6-6-6-6-6-6-6-6--2-2-2-2-4-4-4-4-----4-4-4-4-4-4-4-4-|
A|-2-2-2--1-1-1--6-6-6-6-6-6-6-6--2-2-2-2-4-4-4-4(x2)-2-2-2-2-2-2-2-2-|
E|---------------4-4-4-4-4-4-4-4--0-0-0-0-2-2-2-2---------------------|

e|--------------------------------------------------------------------|
B|--------------------------------------------------------------------|
G|-3-3-3-3-3-3-3-3----------------------------------------------------|
D|-4-4-4-4-4-4-4-4--6-6-6-6-6-6-6-6--2-2-2-2-4-4-4-4------------------|
A|-1-1-1-1-1-1-1-1--6-6-6-6-6-6-6-6--2-2-2-2-4-4-4-4(x2)--------------|
E|------------------4-4-4-4-4-4-4-4--0-0-0-0-2-2-2-2------------------|

Solo(x2)
e|--------------------------------------------------------------------|
B|--------------------------------------------------------------------|
G|-4-4-4-4-4-4-4--8-8-8-8-4-4---8-8-8-8-4-4--6-6-6-6-6-6-4-4-4-4------|
D|-x-x-x-x-x-x-x--x-x-x-x-x-x---x-x-x-x-x-x--x-x-x-x-x-x-x-x-x-x------|
A|-2-2-2-2-2-2-2--6-6-6-6-2-2---7-7-7-7-2-2--4-4-4-4-4-4-2-2-2-2------|
E|--------------------------------------------------------------------|

e|--------------------------------------------------------------------|
B|--------------------------------------------------------------------|
G|-4-4-4--------------------------------------------------------------|
D|-x-x-x--------------------------------------------------------------|
A|-2-2-2--------------------------------------------------------------|
E|--------------------------------------------------------------------|

Comments