Tolidos - Hoy Chords & Tabs

 

Hoy Chords & Tabs

Tolidos Chords & Tabs

Version: 1 Type: Tab 0 ratings
1 star 2 stars 3 stars 4 stars 5 stars
comments

Hoy Tab

   
Esta rola esta muy chida y va para el grupo 107 del cch ote.

Intro
e-------------------|
B-------------------|
G--------7-9--6-7-6-|
D-77-44--7-9--6-7-x-|
A-77-44--5-7--4-5-4-|
E-55-22-------------|

Gtr1 aqui se tokan varias veces
e--------------------------------------------|
B--------------------------------------------|
G-6-------------------9----------7-----------|
D-x-------------------x----------x-----------|
A-4-------------------7----------5-----------|
E--------------------------------------------|
Gtr2
e--------------------------------------------|
B--------------------------------------------|
G--------------------------------------------|
D--------------------------------------------|
A---55-44-22-00-22-45---55-44-2--55-55-44-2--|
E-55------------------22---------------------|

Gtr1
e--------------------------------------------|
B--------------------------------------------|
G-6-------------------9----------7-----------|
D-x-------------------x----------x-----------|
A-4-------------------7----------5-----------|
E--------------------------------------------|
Gtr2
e--------------------------------------------|
B--------------------------------------------|
G--------------------------------------------|
D--------------------------------------------|
A---55-44-22-00-22-45---55-44-2--55-55-44-2--|
E-55------------------22---------------------|

Gtr1
e--------------------------------------------|
B--------------------------------------------|
G-9-------------------6----------7-----------|
D-x-------------------x----------x-----------|
A-7-------------------4----------5-----------|
E--------------------------------------------|
Gtr2
e--------------------------------------------|
B--------------------------------------------|
G--------------------------------------------|
D--------------------------------------------|
A---55-44-22-00-22-45---55-44-2--55-55-44-2--|
E-55------------------22---------------------|

Gtr1
e--------------------------------------------|
B--------------------------------------------|
G-6-------------------9----------7-----------|
D-x-------------------x----------x-----------|
A-4-------------------7----------5-----------|
E--------------------------------------------|
Gtr2
e--------------------------------------------|
B--------------------------------------------|
G--------------------------------------------|
D--------------------------------------------|
A---55-44-22-00-22-45---55-44-2--55-55-44-2--|
E-55------------------22---------------------|

El dia...
e----------------------|
B----------------------|
G-----------------7777-|
D-77777777--4444--7777-|
A-77777777--4444--5555-|
E-55555555--2222-------|

Quise yo saber tu nombre...
pm  .....    .....
e---------------------------|
B---------------------------|
G-------------------7-------|
D-7-77777--4-44444--7-6-6h7-|  x3
A-7-77777--4-44444--5-------|
E-5-55555--2-22222----------|

Las nubes...
e-----------------------------|
B-----------------------------|
G----------6-6--9---7777-6666-|
D-7-6--4---6-6--9---xxxx-xxxx-|
A-7-6--4---4-4--7---5555-4444-|
E-5-4--2----------------------|
Te amo...
e-----------------|
B-----------------|
G----------6-6----|
D-7-6--4---6-6--2-|
A-7-6--4---4-4--2-|
E-5-4--2--------0-|

Los numeros q estan en los () se escuchan levemente
e-------------------------------------------------|
B-------------------------------------------------|
G-7--------------9-------------11--------------13-|
D-7-(7)(6)---(6)-9-(6)(7)(6)---11-(7)(6)---(6)-13-|
A-5-------(7)----7----------(7)-9-------(7)----11-|
E-------------------------------------------------|

Yo pense...
e---------------------------|
B---------------------------|
G---6-7-6---6-7-6-----77777-|
D-7-6-7-6-4-6-7-6-2---xxxxx-|  x3
A-7-4-5-4-4-4-5-4-2---55555-|
E-5-------2-------0---------|
Heridas notorias son...
e------------------------------------|
B------------------------------------|
G-77777-999999-1111111111-1313131313-|
D-xxxxx-xxxxxx-x-x-x-x-x--x-x-x-x-x--|
A-55555-777777-9-9-9-9-9--1111111111-|
E------------------------------------|

Gtr1
Nińa...  x2
pm..   ..   ..   ..   ..   ..   . .      . .
e-------------------------------------------------|
B-------------------------------------------------|
G-----------4444-4444-----------------------------|
D-7777-7777-4444-4444-4444-4444-2-2-2-2--2-2-2-2--|
A-7777-7777-2222-2222-4444-4444-2-2-2-2--2-2-2-2--|
E-5555-5555-----------2222-2222-0-0-0-0--0-0-0-0--|
Gtr2
pm..   ..   ..   ..   ..   ..
e-------------------------------------------------|
B-------------------------------------------------|
G-----------4444-4444-----------------------------|
D-7777-7777-4444-4444-4444-4444-------------------|
A-7777-7777-2222-2222-4444-4444-------------5-4---|
E-5555-5555-----------2222-2222-7-5-4-5-7-5-----5-|
                               latido,latido,latido
Go!...
e--------|
B--------|
G----6-7-|
D-77-x-x-|
a-77-4-5-|
E-55-----|

Gtr1
e--------------------------------------------|
B--------------------------------------------|
G-9-------------------6----------7-----------|
D-x-------------------x----------x-----------|
A-7-------------------4----------5-----------|
E--------------------------------------------|
Gtr2
e--------------------------------------------|
B--------------------------------------------|
G--------------------------------------------|
D--------------------------------------------|
A---55-44-22-00-22-45---55-44-2--55-55-44-2--|
E-55------------------22---------------------|
[ Tab from: http://www.guitartabs.cc/tabs/t/tolidos/hoy_tab.html ]
Gtr1
e--------------------------------------------|
B--------------------------------------------|
G-9-------------------6----------7-----------|
D-x-------------------x----------x-----------|
A-7-------------------4----------5-----------|
E--------------------------------------------|
Gtr2
e--------------------------------------------|
B--------------------------------------------|
G--------------------------------------------|
D--------------------------------------------|
A---55-44-22-00-22-45---55-44-2--55-55-44-2--|
E-55------------------22---------------------|
Gtr1
e---------------|
B---------------|
G-6----7/9--xxx-|
D-x----x/x--xxx-|
A-4----5/7--xxx-|
E---------------|

Me pregunto...
pm  .....    .....
e---------------------------|
B---------------------------|
G-------------------7-------|
D-7-77777--4-44444--7-6-6h7-|  x4
A-7-77777--4-44444--5-------|
E-5-55555--2-22222----------|

Las nubes...
e-----------------------------|
B-----------------------------|
G----------6-6--9---7777-6666-|
D-7-6--4---6-6--9---xxxx-xxxx-|
A-7-6--4---4-4--7---5555-4444-|
E-5-4--2----------------------|
Te amo...
e-----------------|
B-----------------|
G----------6-6----|
D-7-6--4---6-6--2-|
A-7-6--4---4-4--2-|
E-5-4--2--------0-|

e-------------------------------------------------|
B-------------------------------------------------|
G-7--------------9-------------11--------------13-|
D-7-(7)(6)---(6)-9-(6)(7)(6)---11-(7)(6)---(6)-13-|
A-5-------(7)----7----------(7)-9-------(7)----11-|
E-------------------------------------------------|

Gtr1
Nińa...  x2
pm..   ..   ..   ..   ..   ..   . .      . .
e-------------------------------------------------|
B-------------------------------------------------|
G-----------4444-4444-----------------------------|
D-7777-7777-4444-4444-4444-4444-2-2-2-2--2-2-2-2--|
A-7777-7777-2222-2222-4444-4444-2-2-2-2--2-2-2-2--|
E-5555-5555-----------2222-2222-0-0-0-0--0-0-0-0--|
Gtr2
pm..   ..   ..   ..   ..   ..
e-------------------------------------------------|
B-------------------------------------------------|
G-----------4444-4444-----------------------------|
D-7777-7777-4444-4444-4444-4444-------------------|
A-7777-7777-2222-2222-4444-4444-------------5-4---|
E-5555-5555-----------2222-2222-7-5-4-5-7-5-----5-|
                               latido,latido,latido
Gtr1
Nińa...  x2
pm..   ..   ..   ..   ..   ..   . .      . .
e-------------------------------------------------|
B-------------------------------------------------|
G-----------4444-4444-----------------------------|
D-7777-7777-4444-4444-4444-4444-2-2-2-2--2-2-2-2--|
A-7777-7777-2222-2222-4444-4444-2-2-2-2--2-2-2-2--|
E-5555-5555-----------2222-2222-0-0-0-0--0-0-0-0--|
Gtr2
En esta parte es kuando hacen los coros (no fue mi intencion)
e-------------------------------------------------|
B-------------------------------------------------|
G-------------------------------------------------|
D-7-6-----------------7-6-------------------------|
A------7-5--4-5-7----------7-5--------------5-4---|
E-----------------5-5-----------7-5-4-5-7-5-----5-|
                               latido,latido,latido
Interlude  x2
pm........ ........ ........ ........
e--------------------------------------|
B--------------------------------------|
G----------44444444--------------------|
D-77777777-44444444-44444444-22222222--|
A-77777777-22222222-44444444-22222222--|
E-55555555----------22222222-00000000--|

Gtr1
Tu lo sabes...
e---------------------------------------------|
B---------------------------------------------|
G---------------------------------------------|
D---------------------------------------------|
A--05-04-05-07-05-04-5---05-04-05-07-05-04-5--|
E-5---------------------7---------------------|
Gtr2
e----------------------------------------------|
B----------------------------------------------|
G----------------------------------------------|
D-7-7-7-7-7-7-7-7-7-7-7-9-9-9-9-9-9-9-9-9-9-9--|
A-7-7-7-7-7-7-7-7-7-7-7-9-9-9-9-9-9-9-9-9-9-9--|
E-5-5-5-5-5-5-5-5-5-5-5-7-7-7-7-7-7-7-7-7-7-7--|

Gtr1
e----------------------------------------------|
B----------------------------------------------|
G----------------------------------------------|
D-------------------------------------4--------|
A--05-04-05-07-05-04-5---05-04-05-07-0--7-5----|
E-2---------------------0----------------------|
Gtr2
e----------------------------------------------|
B----------------------------------------------|
G----------------------------------------------|
D-4-4-4-4-4-4-4-4-4-4-4-2-2-2-2-2-2-2-2-2-2-2--|
A-4-4-4-4-4-4-4-4-4-4-4-2-2-2-2-2-2-2-2-2-2-2--|
E-2-2-2-2-2-2-2-2-2-2-2-0-0-0-0-0-0-0-0-0-0-0--|

Gtr1  x3
e---------------------------------------------|
B---------------------------------------------|
G---------------------------------------------|
D---------------------------------------------|
A--05-04-05-07-05-04-5---05-04-05-07-05-04-5--|
E-5---------------------7---------------------|
Gtr2
e---------------------------------------------|
B---------------------------------------------|
G-6-6-6-6-6-6-6-6-6-6-6-7-7-7-7-7-7-7-7-7-7-7-|
D-X-X-X-X-X-X-X-X-X-X-X-X-X-X-X-X-X-X-X-X-X-X-|
a-4-4-4-4-4-4-4-4-4-4-4-5-5-5-5-5-5-5-5-5-5-5-|
E---------------------------------------------|

Gtr1
e---------------------------------------------|
B---------------------------------------------|
G---------------------------------------------|
D-------------------------------------4-------|
A--05-04-05-07-05-04-5---05-04-05-07-0--7-5---|
E-2---------------------0---------------------|
Gtr2
e---------------------------------------------|
B---------------------------------------------|
G-6-6-6-6-6-6-6-6-6-6-6-7-9-9-9-9-9-9-9-9-9-9-|
D-X-X-X-X-X-X-X-X-X-X-X-X-X-X-X-X-X-X-X-X-X-X-|
a-4-4-4-4-4-4-4-4-4-4-4-5-7-7-7-7-7-7-7-7-7-7-|
E---------------------------------------------|

Go!...
e----------------------------------------------|
B----------------------------------------------|
G----------------------------------------------|
D-7----------------------9---------------------|
A-7-05-04-05-07-05-04-5--9-05-04-05-07-05-04-5-|
E-5----------------------7---------------------|
pm                  . . .
e-------------------------|
B-------------------------|
G-------------------------|
D-4-----------------7-6-4-|
A-4-05-04-05-07-05--7-6-4-|
E-2-----------------5-4-2-|

Ps eso es todo,dudas a antichrist_superstar_666@hotmail.com
Comments