Tokyo Dragons - Rockin The Stew Chords & Tabs

 

Rockin The Stew Chords & Tabs

Tokyo Dragons Chords & Tabs

Version: 1 Type: Tab

Rockin The Stew Tab

|-----------------------------------|
| Tokyo Dragins  -  Rockin The Stew |
|-----------------------------------|

Tabbed:You-Fat-So
Tuning:Normal(EBGDAE)
E-Mail:simbbada@gmail.com

:Intro: 
E||---------------------------|-------------------------|
B||---------------------------|-------------------------|
G||*--------------------------|-------------------------|
D||*--------------5~----------|-------------7br-5-------|
A||---------5--7-----7--5--7~-|----7--5--7--------7--5--|
E||---0--0--------------------|-------------------------|
  
E||---------------------------|-------------------------|
B||---------------------------|-------------------------|
G||---------------------------|------------------------*|
D||--------------5~-----------|------------------------*|
A||--------5--7-----7--5--7~--|---7--5--2--5--2--0------|
E||--0--0---------------------|----------------------3--|

:Verse:
E||---------------------------|-------------------------|
B||---------------------------|-------------------------|
G||---------------------------|-------------------------|
D||---------------------------|-------------------------|
A||--7----7----10----7--5-----|--7--7----10------7--5---|
E||---------------------------|-------------------------|

E||---------------------------|-------------------------|
B||---------------------------|-------------------------|
G||---------------------------|-------------------------|
D||------------------7--------|--7b-7b---7b-------------|
A||--7----7----10-------10----|-------------------------|
E||---------------------------|-------------------------|

E||---------------------------|-------------------------|
B||---------------------------|-------------------------|
G||---------------------------|-------------------------|
D||---------------------------|-------------------------|
A||--7----7----10----7--5-----|--7--7----10------7--5---|
E||---------------------------|-------------------------|

E||---------------------------|-------------------------|
B||---------------------------|-------------------------|
G||---------------------------|-------------------------|
D||------------------7--------|--7br--------------------|
A||--7----7----10-------10----|-------10--7-------------|
E||---------------------------|-------------------------|

:Bridge:
E||---------------------------|-------------------------|
B||---------------------------|-------------------------|
G||--9----9----9----9---------|--6----6----6----6-------|
D||--9----9----9----9---------|--6----6----6----6-------|
A||--7----7----7----7---------|--4----4----4----4-------|
E||---------------------------|-------------------------|
[ Tab from: http://www.guitartabs.cc/tabs/t/tokyo_dragons/rockin_the_stew_tab.html ]
E||---------------------------|-------------------------|-----||
B||---------------------------|-------------------------|-----||
G||---------------------------|-------------------------|-----||
D||--2----2--------2----------|--2----2-----------------|-----||
A||----------5--2-----5--2----|----------5--2--5--2--0--|-----||
E||---------------------------|-------------------------|--3~~||

:Intro: 
E||---------------------------|-------------------------|
B||---------------------------|-------------------------|
G||*--------------------------|-------------------------|
D||*--------------5~----------|-------------7br-5-------|
A||---------5--7-----7--5--7~-|----7--5--7--------7--5--|
E||---0--0--------------------|-------------------------|
  
E||---------------------------|-------------------------|
B||---------------------------|-------------------------|
G||---------------------------|------------------------*|
D||--------------5~-----------|------------------------*|
A||--------5--7-----7--5--7~--|---7--5--2--5--2--0------|
E||--0--0---------------------|----------------------3--|

:Verse
E||---------------------------|-------------------------|
B||---------------------------|-------------------------|
G||---------------------------|-------------------------|
D||---------------------------|-------------------------|
A||--7----7----10----7--5-----|--7--7----10------7--5---|
E||---------------------------|-------------------------|

E||---------------------------|-------------------------|
B||---------------------------|-------------------------|
G||---------------------------|-------------------------|
D||------------------7--------|--7b-7b---7b-------------|
A||--7----7----10-------10----|-------------------------|
E||---------------------------|-------------------------|

E||---------------------------|-------------------------|
B||---------------------------|-------------------------|
G||---------------------------|-------------------------|
D||---------------------------|-------------------------|
A||--7----7----10----7--5-----|--7--7----10------7--5---|
E||---------------------------|-------------------------|

E||---------------------------|-------------------------|
B||---------------------------|-------------------------|
G||---------------------------|-------------------------|
D||------------------7--------|--7br--------------------|
A||--7----7----10-------10----|-------10--7-------------|
E||---------------------------|-------------------------|

:Bridge:
E||---------------------------|-------------------------|
B||---------------------------|-------------------------|
G||--9----9----9----9---------|--6----6----6----6-------|
D||--9----9----9----9---------|--6----6----6----6-------|
A||--7----7----7----7---------|--4----4----4----4-------|
E||---------------------------|-------------------------|

E||---------------------------|-------------------------|-----||
B||---------------------------|-------------------------|-----||
G||---------------------------|-------------------------|-----||
D||--2----2--------2----------|--2----2-----------------|-----||
A||----------5--2-----5--2----|----------5--2--5--2--0--|-----||
E||---------------------------|-------------------------|--3~~||

the rest i dont know
99% correct (i hope)
have fun!

Band Website
www.tokyodragons.com