Tokio Hotel - Gegen Meinen Willen Chords & Tabs

 

Gegen Meinen Willen Chords & Tabs

Tokio Hotel Chords & Tabs

Version: 1 Type: Tab

Gegen Meinen Willen Tab

   
Made By Dryndal - Polska

Intro:
E|-----------------------------------|
B|-----------------------------------|
G|7/9--9--9--9--9-9-9\7--7--7--7--7-7|
D|7/9--9--9--9--9-9-9\7--7--7--7--7-7|
A|5/7--7--7--7--7-7-7\5--5--5--5--5-5|
E|--------------------------7--------|x2

1 zwrotka:
1 Vers:
Wie soll es mir schon geh'n...
E|-----------------------------------|
B|-----------------------------------|
G|7/9--9--9--9--9-9-9\7--7--7--7--7-7|
D|7/9--9--9--9--9-9-9\7--7--7--7--7-7|
A|5/7--7--7--7--7-7-7\5--5--5--5--5-5|
E|--------------------------7--------|x3
[ Tab from: http://www.guitartabs.cc/tabs/t/tokio_hotel/gegen_meinen_willen_tab.html ]
sagt es mir jetzt in mein Gesicht...  sagt wof? alles hier zerbricht...
E|-----------------------------------------------------------------
B|-----------------------------------------------------------------
G|4--4--4/6--6--6-6/9--9--9\8--8--8-8\4--4--4/6--6--6-6/9--9--9/11-
D|4--4--4/6--6--6-6/9--9--9\8--8--8-8\4--4--4/6--6--6-6/9--9--9/11-
A|2--2--2/4--4--4-4/7--7--7\6--6--6-6\2--2--2/4--4--4-4/7--7--9/9--
E|-----------------------------------------------------------------

es macht mich fertig...
E|------------|
B|------------|
G|2--2--2--2-2|
D|2--2--2--2-2|
A|0--0--0--0-0|
E|------------|

ref.:
chorus:
       C            e
es ist gegen meinen Willen
       C           e
es ist gegen jeden Sinn
      C                    e
warum m?hr euch jetzt trennen
     D         A
eure Namen umbenennen
      C              e
unser Ende ist schon hier
        C                 e
und ihr sagt es nicht vor mir
    C            e
ich hasse euch daf?     D            A
es ist gegen meinen Willen
C               D
dagegen - bin dagegen

Reszta to już pryszcz :D
The rest is a piece of cake :D

To na tyle :D
Thats that :D