Tohpati - Serampang Samba Chords & Tabs

 

Serampang Samba Chords & Tabs

Tohpati Chords & Tabs

Version: 1 Type: Tab 0 ratings
1 star 2 stars 3 stars 4 stars 5 stars
comments

Serampang Samba Tab

Serampang Samba
By Tohpati
Album Serampang samba


Tabbed By Dadan
Acoustic Guitar 
Standard Tuning

Part I

e----------------------------------------------8-7--------------------
B------10-9----------------------------------------10-8-8^v8/10-8-----
G-9^v9------5-5/7-7^v7/9-7-5----7-9-9/10-10^v10-------------------9---
D----------------------------7----------------------------------------
A---------------------------------------------------------------------
E---------------------------------------------------------------------

e----------------10/12-10------------------7-9-10/12-10-9-10----------
B--7-8/10-10^v10-----------7-7/8-8^v/9-7-7-------------------10/12----
G---------------------------------------------------------------------
D---------------------------------------------------------------------
A---------------------------------------------------------------------
E---------------------------------------------------------------------

e-------------12------------10----------------------------------------
B--12^v-11-12-----10^v-9-10-------8-7-----------------7-8-10-12-------
G-------------------------------7-----9-7-9-9/11--7-9-----------------
D---------------------------------------------------------------------
A---------------------------------------------------------------------
E---------------------------------------------------------------------

e-------------12------------10----------------------------------------
B--12^v-11-12-----10^v-9-10------8-7----------6-5---------------------
G------------------------------7-----9-7-9--5-----7-5-7---------------
D---------------------------------------------------------------------
A---------------------------------------------------------------------
E---------------------------------------------------------------------

e----------------------------------------------8-7--------------------
B------10-9----------------------------------------10-8-8^v8/10-8-----
G-9^v9------5-5/7-7^v7/9-7-5----7-9-9/10-10^v10-------------------9---
D----------------------------7----------------------------------------
A---------------------------------------------------------------------
E---------------------------------------------------------------------
[ Tab from: http://www.guitartabs.cc/tabs/t/tohpati/serampang_samba_tab.html ]
e----------------10/12-10------------------7-9-10/12-10-9-10----------
B--7-8/10-10^v10-----------7-7/8-8^v/9-7-7-------------------10/12----
G---------------------------------------------------------------------
D---------------------------------------------------------------------
A---------------------------------------------------------------------
E---------------------------------------------------------------------

e-------------12------------10----------------------------------------
B--12^v-11-12-----10^v-9-10-------8-7-----------------7-8-10-12-------
G-------------------------------7-----9-7-9-9/11--7-9-----------------
D---------------------------------------------------------------------
A---------------------------------------------------------------------
E---------------------------------------------------------------------

e-------------12------------10----------------------10-
B--12^v-11-12-----10^v-9-10------8-7----------7--10----
G------------------------------7-----9-7-9--7----------
D------------------------------------------------------
A------------------------------------------------------
E------------------------------------------------------

e------------------------------------------------------
B------------------------------------------------------
G-14-14-15-12-14-10--10-12-9-10-7-7~9~7~5-7-7/10-------
D------------------------------------------------------
A------------------------------------------------------
E------------------------------------------------------

e------------------------------------------------------
B------------------------------------------------------
G-14-14-15-12-14-10--10-12-9-10-7-7~9~7~5-7-7/10-------
D------------------------------------------------------
A------------------------------------------------------
E------------------------------------------------------

e-------------------------------------------------------------------
B------10\7---------10\7-----10\7---------10/7----------------------
G--9-9------9-7-9-9------9-9------9-7/9-9------9-7-7/9-7/9-7/9-7/9--
D-------------------------------------------------------------------
A-------------------------------------------------------------------
E-------------------------------------------------------------------

etc....

to be continued

Please send your comment to mahasiswaelektroub@yahoo.com
Comments