Toe-to-toe - Slave Chords & Tabs

 

Slave Chords & Tabs

Toe-to-toe Chords & Tabs

Version: 1 Type: Tab 0 ratings
1 star 2 stars 3 stars 4 stars 5 stars
comments

Slave Tab

Artist: toe-to-toe
Song:  slave
Tabbed by: DOMINIC: sex_machine35@hotmail.com
 
 INTRO:
E|---------------
B|---------------
G|-6-6-6-6---9---  
D|-6-6-6-6-7-9---
A|-4-4-4-4-7-7---
E|---------5-----

  VERSE:
E|-----------PART-ONE--------------|----------PART-ONE---------|
B|------(PLAYED-3-TIMES-THEN):-----|---------------------------|
G|---------------------------------|---------------------------|
D|-4-6-6-6-6---4-6-6-6-6---4-6-6---|-4-6-6-6-6---4-6-6-6-6-7---|
A|-4-6-6-6-6---4-6-6-6-6---4-6-6---|-4-6-6-6-6---4-6-6-6-6-7---|
E|-2-4-4-4-4---2-4-4-4-4---2-4-4---|-2-4-4-4-4---2-4-4-4-4-5---|

 VERSE:
E|----PART TWO-----|
B|-----------------|
G|-----------------| (not sure about this bit)
D|-2-4-6-4-6/7-9---|
A|-2-4-6-4-6/7-9---|
E|-0-2-4-2-4/5-7---|

 CHORUS:
E|---------------------|
B|---------------------|
G|-13-13-13-13-13-14---|
D|-13-13-13-13-13-14---|
A|-11-11-11-11-11-12---|
E|---------------------|
[ Tab from: http://www.guitartabs.cc/tabs/t/toe_to_toe/slave_tab.html ]
 GUITAR SOLO:
E|----PLAYED 3 TIMES THEN:-------|-----------------------------------|
B|-------------------------------|-----------------------------------|
G|-------------------------------|-----------------------------------|
D|-4-6-6-6-6---4-6-6-6-6---4-6-6-|-4-6-6-6-6---4-6-6---13-13-13-13---|
A|-4-6-6-6-6---4-6-6-6-6---4-6-6-|-4-6-6-6-6---4-6-6---13-13-13-13---|
E|-2-4-4-4-4---2-4-4-4-4---2-4-4-|-2-4-4-4-4---2-4-4---11-11-11-11---|

 BRIDGE:
E|--PLAYED 3 TIMES THEN:--|-------------------|
B|------------------------|-------------------|
G|-8-----9----------------|-------------------|
D|-8-9-6-9-9/11-11--------|-8-8-8-8-6-8-6-9---|
A|-6-9-6-7-9/11-11--------|-8-8-8-8-6-8-6-9---|
E|---7-4---7/9---9--------|-6-6-6-6-4-6-4-7---|

 LAST VERSE:
E|------PLAYED 3 TIMES THEN:-------|-----------------------------|
B|---------------------------------|-----------------------------|
G|---------------------------------|-----------------------------|
D|-4-6-6-6-6---4-6-6-6-6---6-6-7---|-4-6-6-6-6---4-6-6-6-7-7-7---|
A|-4-6-6-6-6---4-6-6-6-6---6-6-7---|-4-6-6-6-6---4-6-6-6-7-7-7---|
E|-2-4-4-4-4---2-4-4-4-4---4-4-5---|-2-4-4-4-4---2-4-4-4-5-5-7---|

 OUTRO:
E|-------------|      1   ORDER PLAYED:   7 VERSE PRT2 X4  11 LAST VERSE X1          
B|-------------|      2   INTRO X4        8 INTRO X4       12 CHORUS X4
G|-------------|      3   VERSE PRT 1 X2  9 GUITAR SOLO X4 13 INTRO X8
D|-7-7-7-7-6---|      4   VERSE PRT 2 X4  10 BRIDGE X2     14 OUTRO X1.
A|-7-7-7-7-6---|      5   VERSE PRT 1 X1    
E|-5-5-5-5-4---|      6   CHORUS X4
Comments