Toe To Toe - Falling Short Chords & Tabs

 

Falling Short Chords & Tabs

Toe To Toe Chords & Tabs

Version: 1 Type: Tab 0 ratings
1 star 2 stars 3 stars 4 stars 5 stars
comments

Falling Short Tab

----------------------------------PLEASE NOTE--------------------------------#
#This file is the author's own work and represents their interpretation of the#
#song. You may only use this file for private study, scholarship, or research.#
#-----------------------------------------------------------------------------#

Artist:Toe To Toe 
Title:Falling Short
Tabbed by Brad Maher 
Email Comments or corrections or any toe to toe tabs 
Groovy_dick@hotmail.com
Standard Tuning
EADGBE
intro bass only 



D8888888888-10-999999999999---------------------10-9999999999999
A6666666666-8-7777777777777999-1010101010-8-7777777777777
E--------------------------------------777-8-8-8-8-8--------------------------               


D9-10--111111-9-10-9999-
A7--8---9999---7--8--7777-
E-------------------------------
[ Tab from: http://www.guitartabs.cc/tabs/t/toe_to_toe/falling_short_tab.html ]
D9-10--111111-9-10-9999
A7--8---9999---7--8--7777-   
E-------------------------------            

D8888888888-10-999999999999-------777
A6666666666-8-7777777777777999--555
E--------------------------------------777------


D-------------------5555555555555-77777777777777-555-444-------
A222222222222-3333333333333-55555555555555-333-222-5-4-2
E000000000000------------------------------------------------------3-2-0

Followed By the Bass Solo



D0-2-0-9-0-2-0-7--0-2-0-9-0-2-0-7
A0-2-0-7-0-2-0-5--0-2-0-7-0-2-0-5
E---0---------0-------------------------

D2-4-5-6-77777--2-6-7-8-99999
A2-2-3-4-55555--2-4-5-6-77777
E0-------------------0----------------


Thats It Just Figure Out the timing and where everything goes and youll be right
If you need the bass for this song email me
Groovy_dick@hotmail.com


Comments