Todd Sweeney - Roxy Roller Chords & Tabs

 

Roxy Roller Chords & Tabs

Todd Sweeney Chords & Tabs

Version: 1 Type: Tab 0 ratings
1 star 2 stars 3 stars 4 stars 5 stars
comments

Roxy Roller Tab

Artist: Sweeney Todd
Song: Roxy Roller
Album: Sweeney Todd (1976)
Tuning: Standard
Comments: Reached #1 in Canada, classic band. Lead singer, Nick Gilder, 

e|-------------|
B|-------------|
G|-------------|
D|-------------|
A|-------------|
E|--5/0--------| Intro after drum roll
[ Tab from: http://www.guitartabs.cc/tabs/t/todd_sweeney/roxy_roller_tab.html ]
e|---------------------|
B|-----5-------5-5-5---|
G|-----4-------4-4-4---|
D|-----2-------2-2-2---|
A|---------------------|
E|--0------0-----------| Main riff after every line, chorus

e|----------------------------|
B|----------------------------|
G|----------------------------|
D|----------------------------|
A|----------------------------|
E|-00-00-00-00-00-00-00-00----| Played during lines

e|-------------|
B|-------------|
G|-------------|
D|--5--4--3----|
A|--5--4--3----|
E|--3--2--1----| Played at end of verse


e|-------------|
B|-------------|
G|-------------|
D|---6/7-7-7---|
A|---6/7-7-7---|
E|---4/5-5-5---| After chorus, pre-verse
Comments