Todd Snider - Sunshine Chords & Tabs

 

Sunshine Chords & Tabs

Todd Snider Chords & Tabs

Version: 1 Type: Tab

Sunshine Tab

   
----------------------------------------------------------------------------
			     Sunshine-Todd Snider
----------------------------------------------------------------------------
Tabbed by:Justin LeMay
Email:littlemanjlemay@hotmail.com

Tuning:Drop-D

Actually, My friend tabbed this out, so I don't take credit but since this isn't anywhere
on the web I thought I would share it with people who want to know, it's a really easy but catchy song.
[ Tab from: http://www.guitartabs.cc/tabs/t/todd_snider/sunshine_tab.html ]
                      
e|------------------------------------------------------------------------|
B|------------------------------------------------------------------------|
G|------------------------------------------------------------------------|
D|------------------------------------------------------------------------|
A|-----7-7-7-7--9-----7-7-7-7--9----7-7-7-7--22-------7-7-7-7--22---------|
E|-----0-0-0-0--0-----0-0-0-0--0----0-0-0-0--00-------0-0-0-0--00---------|
   
e|------------------------------------------------------------------------|
B|------------------------------------------------------------------------|
G|------------------------------------------------------------------------|
D|------------------------------------------------------------------------|
A|--------5-5-5-5-------7-7-7-7------5-5-5-5------7-7-7-7-----------------|
E|--------0-0-0-0-------0-0-0-0------0-0-0-0------0-0-0-0-----------------|

e|------------------------------------------------------------------------|
B|------------------------------------------------------------------------|
G|------------------------------------------------------------------------|
D|------------------------------------------------------------------------|
A|-----7-7-7-7--9-----7-7-7-7--9----7-7-7-7--22-------7-7-7-7--22---------|
E|-----0-0-0-0--0-----0-0-0-0--0----0-0-0-0--00-------0-0-0-0--00---------|

e|------------------------------------------------------------------------|
B|------------------------------------------------------------------------|
G|------------------------------------------------------------------------|
D|------------------------------------------------------------------------|
A|--------5-5-5-5-------7-7-7-7------5-5-5-5------7-7-7-7-----------------|
E|--------0-0-0-0-------0-0-0-0------0-0-0-0------0-0-0-0-----------------|




| /  slide up
| \  slide down
| h  hammer-on
| p  pull-off
| ~  vibrato
| +  harmonic
| x  Mute note
============================================================================