Todd Josh - Straight Jacket Chords & Tabs

 

Straight Jacket Chords & Tabs

Todd Josh Chords & Tabs

Version: 1 Type: Tab 0 ratings
1 star 2 stars 3 stars 4 stars 5 stars
comments

Straight Jacket Tab

Straight Jacket
Performed by Josh Todd
Tabbed by Andrew Hofschulte

Intro
ALL PULL OFFS:
[ Tab from: http://www.guitartabs.cc/tabs/t/todd_josh/straight_jacket_tab.html ]
E----------------------------------------------------------------------------
B----------------------------------------------------------------------------
G----------------------------------------------------------------------------
D-----------------------------------------------------------------^---^-----
A-5-0-5-0-----------5-0-5-0-----------5-0-5-0-----------5-0-5-0---|---|------ 
D-----------8-0-8-0-----------6-0-6-0-----------8-0-8-0-----------13-13------

Verse

E---------
B---------
G----------
D-0-1----
A-0-1----
D-0-1----

Chorus

E------------------------------
B------------------------------
G------------------------------
D------------------------------
A---------------------------5--
D-1-4-3-4-3-4-3-4-3 0----------SEVERAL TIMES


Bridge
E----------
B----------
G----------
D-4-5-0----
A-4-5-0----
D-4-5-0----


End note

E----------
B----------
G----------
D-0--------
A-0--------
D-0--------


arrows represent bend 1\2 step down
Comments