Todd Josh - Shine Chords & Tabs

 

Shine Chords & Tabs

Todd Josh Chords & Tabs

Version: 1 Type: Tab 1 rating
1 star 2 stars 3 stars 4 stars 5 stars
comments

Shine Tab

Shine
Performed by Josh Todd
Tabbed by Andrew Hofschulte

Intro/Chorus

E-----------------------------------------------
B-----------------------------------------------
G-7-7---6-7-9--7----6--7--7-6-7-----------------
D-X-X-X-X-X-X-X-X-X-X-X-X-X-X-X-----------------
A-5-5--4--5-7--5--4--5--5-4--5------------------
D-0---------------------5-----------------------

Verse/ Breakdown
[ Tab from: http://www.guitartabs.cc/tabs/t/todd_josh/shine_tab.html ]
E-----------------------------------------------
B-----------------------------------------------
G-----------------------------------------------
D-----------------------------------------------
A-----5-5---4-5-(0)-7------5-5---4-5-(0)-7------
D-0-0----0--------------5-5-----5---------------

Bridge

E-----------------------------------------------
B-----------------------------------------------
G-----------------------------------------------
D-----------------------------------------------
A-5-5-5-5-4-4-7-7-------------------------------
D-----------------------------------------------
pm...............


Comments