Todd Josh - Flowers And Cages Chords & Tabs

 

Flowers And Cages Chords & Tabs

Todd Josh Chords & Tabs

Version: 1 Type: Tab 0 ratings
1 star 2 stars 3 stars 4 stars 5 stars
comments

Flowers And Cages Tab

   
Flowers and Cages
Performed by Josh Todd
Tabbed by Andrew Hofschulte

Intro

E----------------------
B----------------------
G----------------------
D-----2-2h3-0-0---1-8-0
A-----------------1-8-0
D-0-0-------------1-8-0


[ Tab from: http://www.guitartabs.cc/tabs/t/todd_josh/flowers_and_cages_tab.html ]
Verse
E----------------------
B----------------------
G-----5(p)-------------
D---3 5-3---(p)--------
A------------5-0-------
D-0--------------------



Chorus/ Outro
E------------------------------------
B------------------------------------
G------------------------------------
D-8-8-8-8-10-10-10-10-0-0-0-0-0-0-0-0
A-8-8-8-8-10-10-10-10-0-0-0-0-0-0-0-0
D-8-8-8-8-10-10-10-10-0-0-0-0-0-0-0-0

D-1-8-0
A-1-8-0
D-1-8-0

p=Pull Off
h=Hammer on
Comments