Todd Josh - Burn Chords & Tabs

 

Burn Chords & Tabs

Todd Josh Chords & Tabs

Version: 1 Type: Tab 0 ratings
1 star 2 stars 3 stars 4 stars 5 stars
comments

Burn Tab

Burn
Performed by Josh Todd
Tabbed by Andrew Hofschulte

Intro

E-3-3-0-2/5/7/-------- X2
B---------------------
G---------------------
D---------------------
A---------------------
D---------------------

Verse
[ Tab from: http://www.guitartabs.cc/tabs/t/todd_josh/burn_tab.html ]
E---------------------
B---------------------
G-5-5-5-4-4-----------
D-5-5-5-4-4-2-0-------
A-3-3-3-2-2-2-0-------
D-----------2-0-------



Bridge/Breakdown

E-------------------------------------
B-------------------------------------
G-------------------------------------
D------5--4--5--7-5------5--4--5--7--5
A-3-3--3--3--3-----2-2---2--2--2------
D-------------------------------------
Comments