Todd Josh - Blast Chords & Tabs

 

Blast Chords & Tabs

Todd Josh Chords & Tabs

Version: 1 Type: Tab 0 ratings
1 star 2 stars 3 stars 4 stars 5 stars
comments

Blast Tab

Blast
Performed by Josh Todd
Tabbed by Andrew Hofschulte

Intro

E----------------------------------------------------------
B----------------------------(5)---------------------------
G-------------------------------(5)------------------------
D-5-3-2/4---5-3-2/4-------(5)-----------------------0-0----
A-5-3-2/4---5-3-2/4---------------------------------0-0----
D-5-3-2/4—--5-3-2/4----1ST TIME-----------2ND TIME:-0-0----

Verse
[ Tab from: http://www.guitartabs.cc/tabs/t/todd_josh/blast_tab.html ]
E----------------------
B----------------------
G----------------------
D----------------------
A----------------------
D-2-0-2-0---2-0-2-0----


Chorus

E------------------------------------------
B------------------------------------------
G------------------------------------------
D----Intro + 0-0-0-0-2-2-2-2-3-3-3-3-------
A------------0-0-0-0-2-2-2-2-3-3-3-3-------
D------------0-0-0-0-2-2-2-2-3-3-3-3-------


Bridge

E---------------------------
B---------------------------
G---------------------------
D-3/2-3/2-3/2/5-----2------+ There are some notes you can
A-3/2-3/2-3/2/5-----2------+ play with at the end of the bridge
D-3/2-3/2-3/2/5-----2------+(use some effects)
Comments