Todd Josh - Afraid Chords & Tabs

 

Afraid Chords & Tabs

Todd Josh Chords & Tabs

Version: 1 Type: Tab 0 ratings
1 star 2 stars 3 stars 4 stars 5 stars
comments

Afraid Tab

   
Afraid
Performed by Josh Todd
Tabbed by Andrew Hofschulte

Intro/ Chorus

E--------------|--
B--------------|--
G--------------|--
D-12-11-7--6-5-|-3*
A-10-9--5--4-3-|-1*
D-10-9--5--4-3-|-1* *Chorus Only

Verse
[ Tab from: http://www.guitartabs.cc/tabs/t/todd_josh/afraid_tab.html ]
E--------------------------------------------------------
B--------------------------------------------------------
G-----3----------3------------(p)-----5------(p)-----5---
D---5—5------5—5---------5-7---5-5----5-7---5-5----------
A-3----------3---------3/2-0-------------0---------------
D--------------------------------------------------------

Breakdown

E----------------------------------------------
B----------------------------------------------
G----------------------------------------------
D-5-5-5-5-7-7-7-7-12-12-10-10--9-9-9-9-5-5-3-3-
A-3-3-3-3-5-5-5-5-10-10-8---8--7-7-7-7-3-3-5-5-
D-3-3-3-3-5-5-5-5-10-10-8---8--7-7-7-7-3-3-5-5-

Bridge

E--------------------------
B--------------------------
G--------------------------
D-2-0-2-0-2-0-2-0 10-10-9-9
A-2-0-2-0-2-0-2-0 10-10-9-9
D-2-0-2-0-2-0-2-0 10-10-9-9


p=Pulloff
Comments