Tocotronic - This Boy Is Tocotronic Chords & Tabs

 

This Boy Is Tocotronic Chords & Tabs

Tocotronic Chords & Tabs

Version: 2 Type: Bass Tab 0 ratings
1 star 2 stars 3 stars 4 stars 5 stars
comments

This Boy Is Tocotronic Bass Tab

   
This boy is tocotronic - Bassline

by Tocotronic

transcribed by Christian Reindel(creindel@gmx.de)
any questions or corrections- e-mail me

Normal tuning 

play all bass parts in little variations as written

 Intro 
         this boy             is tocotronic
G:|---------------------------|----------|
D:|--------9------------------|----------|
A:|---------------------------|----------|
E:|---7-7-----7--5^7--7-------|---7-(7)--|

  Main-riff 

   Ja das ist jetzt, der einzige Zweck
   Alles um uns herum ist weg
   dass wird alles mitgezerrt
G:|--------------------------------|
D:|--------------------------------|
A:|------0-0----2--2-2--2-2-2-2----|
E:|--2-2------2--------------------|

   interlude
G:|-----------------------------------------------------------------|
D:|-----------------------------------------------------------------|
A:|-----0-0---------------------------------------------------------|
E:|-2-2-----2-/-5-5-5-5-5-5-5-5-4-4-4-4-4-4-4-4-3-3-3-3-3-3-3-3-3---|

   back to main-riff 

   Ein Scherz im Labyrinth 
   der Unvernunft macht uns gesund
G:|--------------------------------|
D:|--------------------------------|
A:|------0-0----2--2-2--2-2-2-2----|
E:|--2-2------2--------------------|  

Chorus:
            Du liegts neben mir   und  dann     blicken  wir  uns
G:|--------------------------------------------------------------------|
D:|--------------------------------------------------------------------|
A:|--4-4-4-4-4-4-4-4-4-4-4-4-4-4-4-4-2-2-2-2-2-2-2-2-2-2-2-2-2-2-2-2---|
E:|--------------------------------------------------------------------|

   
    an                    deine  Augen  sehen              was meine Augen sehen
G:|-------------------------------------------------------------------------------|
D:|-------------------------------------------------------------------------------|
A:|-------------------------------------------------------------------------------|
E:|-2-2-2-2-2-2-2-2-2-5-5-5-5-5-5-5-5-5-4-4-4-4-4-4-4-4-4-3-3-3-3-3-3-3-3-3-2-(2)-|

back to main riff

   this boy is tocotronic 3x
G:|--------------------------------|
D:|--------------------------------|
A:|------0-0----2--2-2--2-2-2-2----|
E:|--2-2------2--------------------|

[ Tab from: http://www.guitartabs.cc/tabs/t/tocotronic/this_boy_is_tocotronic_btab_ver_2.html ]
    this boy      guitarsolo starts.....
G:|--------------------------------------------------------------------|
D:|--------------------------------------------------------------------|
A:|------0-0-----------------------------------------------------------|
E:|--2-2------2-/-5----4----5----4---5-5-5-5-5-5-5-5-4-4-4-4-4-4-4-4-4-|

                                          mainriff - 4 times
G:|------------------------------------|-------------------------------|
D:|------------------------------------|-------------------------------|
A:|------------------------------------|------0-0----2--2-2--2-2-2-2---|
E:|-4-4-4-4-4-4-4-4-4-3-3-3-3-3-3-3-3--|--2-2------2-------------------|


Chorus:
            Du liegts neben mir    und  dann     blicken  wir  uns
G:|--------------------------------------------------------------------|
D:|--------------------------------------------------------------------|
A:|--4-4-4-4-4-4-4-4-4-4-4-4-4-4-4-4-2-2-2-2-2-2-2-2-2-2-2-2-2-2-2-2---|
E:|--------------------------------------------------------------------|
   
    an                    deine  Augen  sehen              was meine Augen sehen
G:|-------------------------------------------------------------------------------|
D:|-------------------------------------------------------------------------------|
A:|-------------------------------------------------------------------------------|
E:|-2-2-2-2-2-2-2-2-2-5-5-5-5-5-5-5-5-5-4-4-4-4-4-4-4-4-4-3-3-3-3-3-3-3-3-3-2-(2)-|


back to main riff

   this boy is tocotronic 
G:|--------------------------------|
D:|--------------------------------|
A:|------0-0----2--2-2--2-2-2-2----|
E:|--2-2------2--------------------|

Outro
                                    2 times
G:|-----------------------------------------------------------------------|
D:|-----------------------------------------------------------------------|
A:|-6-6-6-6-6-6-6-6-6-6-6-6-6-6-6-6-6-------------------------------------|
E:|-----------------------------------7-7-7-7-7-7-7-7-7-7-7-7-7-7-7-7-7---|

                                          this boy               is tocotronic
G:|-----------------------------------|---------------------------|----------|
D:|-----------------------------------|--------9------------------|----------|
A:|-6-6-6-6-6-6-6-6-6-6-6-6-6-6-6-6-6-|---------------------------|----------|
E:|-----------------------------------|---7-7-----7--5^7--7-------|---7-(7)--|

That's it.
Comments