Tobymac - New World Chords & Tabs

 

New World Chords & Tabs

Tobymac Chords & Tabs

Version: 1 Type: Tab

New World Tab

For this first part, you'll need to know the beat.
(This song was inspired by the movie "The cronicals of Narnia).
p=palm mute
/=slide

-----------------------------------------------------|
-----------------------------------------------------|
-----------------------------------------------------|
3-3-3-3-3-3-3-3-3-3----6-6-6-6-6------8-8-8-8-8------|  X2
1-1-1-1-1-1-1-1-1-1----6-6-6-6-6------8-8-8-8-8------|
1-1-1-1-1-1-1-1-1-1----4-4-4-4-4------6-6-6-6-6------|
    p         p            p              p

---------------------------------------|
---------------------------------------|
---------------------------------------|
-3-3----3-3----6-6---8-8---------------|
-3-3----3-3----6-6---8-8---------------|
-1-1----1-1----4-4---6-6---------------|

-----------------------------------------------------|
-----------------------------------------------------|
-----------------------------------------------------|
3-3-3-3-3-3-3-3-3-3----6-6-6-6-6------8-8-8-8-8------|  X3
1-1-1-1-1-1-1-1-1-1----6-6-6-6-6------8-8-8-8-8------|
1-1-1-1-1-1-1-1-1-1----4-4-4-4-4------6-6-6-6-6------|
    p         p            p              p

-----------------------------------------------------|
-----------------------------------------------------|
-3-3-3-3-3-3-3-3-------6-6-6-6------8-8-8-8----------|
-3-3-3-3-3-3-3-3-------6-6-6-6------8-8-8-8----------|
-1-1-1-1-1-1-1-1-------4-4-4-4------6-6-6-6----------|
-----------------------------------------------------|

-----------------------------------------------------|
-----------------------------------------------------|
-----------------------------------------------------|
-----------------------------------------------------|
-------10/8-10/8--11/8--10/8--10--10/8-10/8--11/8-10-|
-1-------------------------------------------6-------|

---------------------------------------|
---------------------------------------|
---------------------------------------|
-3-3----3-3----6-6---8-8---------------|
-3-3----3-3----6-6---8-8---------------|
-1-1----1-1----4-4---6-6---------------|

[ Tab from: http://www.guitartabs.cc/tabs/t/tobymac/new_world_tab.html ]
-----------------------------------------------------|
-----------------------------------------------------|
-----------------------------------------------------|
3-3-3-3-3-3-3-3-3-3----6-6-6-6-6------8-8-8-8-8------|  X3
1-1-1-1-1-1-1-1-1-1----6-6-6-6-6------8-8-8-8-8------|
1-1-1-1-1-1-1-1-1-1----4-4-4-4-4------6-6-6-6-6------|
    p         p            p              p

-----------------------------------------------------|
-----------------------------------------------------|
-3-3-3-3-3-3-3-3-------6-6-6-6------8-8-8-8----------|
-3-3-3-3-3-3-3-3-------6-6-6-6------8-8-8-8----------|
-1-1-1-1-1-1-1-1-------4-4-4-4------6-6-6-6----------|
-----------------------------------------------------|

-----------------------------------------------------|
----8-----8-------9-------11--9-9-9-9-8--------------|
-------5------5-------5------------------------------|
-----------------------------------------------------|
-----------------------------------------------------|
-----------------------------------------------------|

-----------------------------------------------------|
-----------------------------------------------------|
-----------------------------------------------------|
3-3-3-3-3-3-3-3-3-3----6-6-6-6-6------8-8-8-8-8------|  X3
1-1-1-1-1-1-1-1-1-1----6-6-6-6-6------8-8-8-8-8------|
1-1-1-1-1-1-1-1-1-1----4-4-4-4-4------6-6-6-6-6------|
    p         p            p              p


-----------------------------------------------------|
-----------------------------------------------------|
-3-3-3-3-3-3-3-3-------6-6-6-6------8-8-8-8----------|
-3-3-3-3-3-3-3-3-------6-6-6-6------8-8-8-8----------| X2
-1-1-1-1-1-1-1-1-------4-4-4-4------6-6-6-6----------|
-----------------------------------------------------|


-----------------------------------------------------|
-----------------------------------------------------|
-----------------------------------------------------|
-----------------------------------------------------|X2
-------10/8-10/8--11/8--10/8--10--10/8-10/8--11/8-10-|
-1-------------------------------------------6-------|


-----------------------------|
-----------------------------|
-----------------------------|
-----------------------------|
-------10/8-10/8--11/8--10/8-|
-1---------------------------|


----------------------------------|
----------------------------------|
----------------------------------|
----------------------------------|
-------10/8-10/8--11/8--10/8--10--|
-1--------------------------------|

-----------------------------|
-----------------------------|
-----------------------------|
-----------------------------|
-------10/8-10/8--11/8--10/8-|
-1---------------------------|