Tobymac - Irene Chords & Tabs

 

Irene Chords & Tabs

Tobymac Chords & Tabs

Version: 2 Type: Tab 0 ratings
1 star 2 stars 3 stars 4 stars 5 stars
comments

Irene Tab

Song: Irene
Artist: tobymac
Album: Momentum
Tabber: brazucs87 (snjoepena@h0tmail.c0m)

Key:
/: slide up
\: slide down
h: hammer on
p: pull off
~: tremolo


Guitar Intro:
E|---------------------------/12--14-15-14-12-11-12---------------------------------|
B|--------------------------------------------------12-13-12-10-12-10---------------|
G|------------------9-11-12-------------------------------------------12-11-12-11---|
D|----------------9--------------------------------------------------------------14-|
A|------2/7--9-10-------------------------------------------------------------------|
E|--0-3-----------------------------------------------------------------------------|
[ Tab from: http://www.guitartabs.cc/tabs/t/tobymac/irene_tab_ver_2.html ]
:05
E|-----------14-------12-12\-8--8----5--7-8-7-8-8/12--12~--10--8-|
B|--------12----------13-13\-10-10---5---------------------------|
G|-----14-------------14-14\-9--9----5---------------------------|
D|--13-----------------------------------------------------------|
A|---------------------------------------------------------------|
E|---------------------------------------------------------------|

:11
E|--7h8p7p5--7h8p7p5--5-7-5------------------------------------------|
B|---------------------------7h8p7p5h7-5-4---------------------------|
G|--------------------------------------------5-4-5-4----------------|
D|-----------------------------------------------------7-5-4-5-4-2-1-|
A|-------------------------------------------------------------------|
E|-------------------------------------------------------------------|

:14
Guitar 1:		Guitar 2:
E|-----------------2v-|  E|--0~-|
B|--------------1-----|  B|-----|
G|-----------2--------|  G|-----|
D|--------1-----------|  D|-----|
A|--3--2--------------|  A|-----|
E|--------------------|  E|-----|


Main Riff:
E|----5---5-----3---3------------------------|
B|----5---5-----5---5-------4---4-----4---4--|
G|--------------------------4---4-----4---4--|
D|-------------------------------------------|
A|--0-------------------2---------2----------|
E|-----------0-------------------------------|
Comments