Tobymac - Irene Chords & Tabs

 

Irene Chords & Tabs

Tobymac Chords & Tabs

Version: 1 Type: Tab 0 ratings
1 star 2 stars 3 stars 4 stars 5 stars
comments

Irene Tab

   
Irene
Toby Mac
Momentum
tabbed by andrethegiant


Intro:
E----------------------7/14-15-14-12-11-12----------------------------------|
B----------------5-7-8---------------------12-13-12-10-12-10----------------|
G--------------4---------------------------------------------12-11-12-11-9--|
D----------4-5--------------------------------------------------------------|
A------2/7------------------------------------------------------------------|
E--0-3----------------------------------------------------------------------|
[ Tab from: http://www.guitartabs.cc/tabs/t/tobymac/irene_tab.html ]
E------------14---12-12\-8--8----7-8-7--8/12--12t--10--8------|
B----10--12-------13-13\-10-10---10---------------------------|
G--8--------------14-14\-9--9----9----------------------------|
D--------------------------------7----------------------------|
A-------------------------------------------------------------|
E-------------------------------------------------------------|

E--7h8p7p5--7h8p7p5--5-7-5---------------------------------------------|
B--------------------------8--7h8p7p5h7-5-4----------------------------|
G--------------------------------------------5-4-5-4--2-0--------------|
D----------------------------------------------------------4-5-4-2-1---|
A----------------------------------------------------------------------|
E----------------------------------------------------------------------|

E-----------------2--0t------|
B--------------1-------------|
G-----------2----------------|
D--------1-------------------|
A--3--2----------------------|
E----------------------------|


Legend:
/: slide up
\: slide down
h: hammer-on
p: pull-off
t: tremolo pick
Comments