Tobymac - Burn For You Chords & Tabs

 

Burn For You Chords & Tabs

Tobymac Chords & Tabs

Version: 1 Type: Tab 0 ratings
1 star 2 stars 3 stars 4 stars 5 stars
comments

Burn For You Tab

Both parts are played pretty much the whole song, so you can play with 2 guitars, or 
to the seccond part while you can't really hear the first part

PART 1:

E--------------------------------------------------|
B----------5-----------8---------------------------|
G---------------------------------6-----------5/6--|
D-------7----------10------------------------------|
A----5--------8----------------8----------7--------|
E-------------------------6-----------5------------|
[ Tab from: http://www.guitartabs.cc/tabs/t/tobymac/burn_for_you_tab.html ]
E--------------------------------------------------|
B----------5-----------8---------------------------|
G---------------------------------6-----------5----|
D-------7----------10------------------------------|
A----5--------8----------------8----------7--------|
E-------------------------6-----------5------------|

PART 2:
E--------------------------------------------------|
B--------------------------------------------------|
G--7--7--7--7--10-10-10-10-------------------------|
D--7--7--7--7--10-10-10-10-8--8--8--8--7--7--7--7--|
A--5--5--5--5--8--8--8--8--8--8--8--8--7--7--7--7--|
E--------------------------6--6--6--6--5--5--5--5--|
Comments