Toby Lightman - Everyday Chords & Tabs

 

Everyday Chords & Tabs

Toby Lightman Chords & Tabs

Version: 1 Type: Tab 0 ratings
1 star 2 stars 3 stars 4 stars 5 stars
comments

Everyday Tab

Artist: Toby Lightman
Song: Everyday
Tabbed From: Little Things Bonus Video
Tabbed By: Jo Lefebure (whipy@hotmail.com)


Capo 4th fret


(1) Intro, first chord is upstroked:

e|--0---------2----0--------|
b|--8---3/5---3----8---3/5--|
g|--0---0/0---2----0---0/0--|
d|--9---X/X---0----9---X/X--|
a|--10--2/3--------10--2/3--|
e|--X--------------X--------|

(2) Verse:

e|------3---3-------3---3--------------------------|
b|------3---3-------3---3-------0---0--------------|
g|------0---0-------0---0-------0---0-------0------|
d|------0---0-------0---0-------3---3-------2------|
a|------2---2-------X---X-------3---3-------2------|
e|--3-3-3-3-3---2-2-2-2-2---1-1-1-1-1---0-0-0-0-2--|

(3) So I find myself...
[ Tab from: http://www.guitartabs.cc/tabs/t/toby_lightman/everyday_tab.html ]
e|--------------|         |--2--|
b|--5--------5--|         |--3--|
g|--0-----3--0--| 3x then |--2--|
d|--5--5--0--5--|         |--0--|
a|--3--5--X--3--|         |-----|
e|-----3--2-----|         |-----|

(4) Chorus:

e|-----------0--|-----------|-----------0--|--------|
b|--5--------3--|--5-----2--|--5--------3--|--1--1--|
g|--0-----0--2--|--0--0--0--|--0-----0--2--|--0--0--|
d|--5--5--2--0--|--5--2--2--|--5--5--2--0--|--2--X--|
a|--3--5--2-----|--3--2--2--|--3--5--2-----|--3--2--|
e|-----3--0-----|-----0-----|-----3--0-----|--------|

(5) Bridge:

e|-----------|--------------|-----------0-----|
b|--11--3/5--|--11--3/5-/7--|--11--3/5--3--1--|
g|--0---0/0--|--0---0/0-/0--|--0---0/0--2--0--|
d|--X---X/X--|--X---X/X-/X--|--X---X/X--0--2--|
a|--10--2/3--|--10--2/3-/5--|--10--2/3-----3--|
e|-----------|--------------|-----------------|

(6) End on:

e|-------------------3--|
b|--1--1---1--1------3--|
g|--0--0---0--0------0--|
d|--2--X---2--X---------|
a|--3--2---3--2----2----|
e|----------------3-----|
Comments