Toby Lightman - Devils And Angels Chords & Tabs

 

Devils And Angels Chords & Tabs

Toby Lightman Chords & Tabs

Version: 1 Type: Tab 0 ratings
1 star 2 stars 3 stars 4 stars 5 stars
comments

Devils And Angels Tab

Artist: Toby Lightman
Song: Devils And Angels
Album: Little Things
Tabbed By: Jo Lefebure (whipy@hotmail.com)

(1) Intro, Verses & Outro:

e|--5----3----1--0--3-1-0--|
b|--6----5----3--3--3-3-3--|
g|--7----6----2--2--2-2-2--|
d|--0----5----0--0--0-0-0--|
a|-------------------------|
e|-------------------------|

(2) And I'm gonna meet you...

e|------------1---1--|
b|------------3---3--|
g|------------2---3--|
d|--5---7-----0---0--|
a|--5---7------------|
e|--3---5------------|

(3) Why...
[ Tab from: http://www.guitartabs.cc/tabs/t/toby_lightman/devils_and_angels_tab.html ]
e|--5---3---1---0--|
b|--6---5---3---3--|
g|--7---6---2---2--|
d|--0---5---0---0--|
a|-----------------|
e|-----------------|

(4) Chorus:

e|--3---3---3---3---3---3--|
b|--3---3---3---3---3---3--|
g|--0---0---2---0---0---0--|
d|--2---0---0---0---2---0--|
a|--3---2---X---2---3---2--|
e|--X---X---X---X---X---3--|

(5) I... can't love you no more...

e|--5--3--1--0----------|
b|--6--5--3--3----------|
g|--7--6--2--2----------|
d|--0--5--0--0---5---7--|
a|---------------5---7--|
e|---------------3---5--|
Comments