Toby Keith - Whos Your Daddy Chords & Tabs

 

Whos Your Daddy Chords & Tabs

Toby Keith Chords & Tabs

Version: 1 Type: Tab 3 ratings
1 star 2 stars 3 stars 4 stars 5 stars
comments

Whos Your Daddy Tab

Title: Who’s Your Daddy  Intro
Artist: Toby Keith
Tran scripted by: Nathan Harris   ( comments to nateharris@comcast ) 

                    This is my first tab I wrote. It is perfect. No mistakes. Listen to the song for the pattern. Have fun with this!

                 S=slide       b=bend        h=hammer
[ Tab from: http://www.guitartabs.cc/tabs/t/toby_keith/whos_your_daddy_tab.html ]
e) |-------------------------------------------------|----------------------------------------------------------
b) |---4s5----7---5-----------4s5-----7-----5--------|-----5s7-----9-----7--------------------------------------
g) |---5s6----7---6---6------ 5s6-----7-----6-----6--|------6s8-----9-----8----876----9--8----------------------
d) |----------------------7-----------------------7--|-------------------------987------------9-----------------
a) |-------------------------------------------------|----------------------------------------------------------
e) |-------------------------------------------------|----------------------------------------------------------


e) |---------------------------------------------|-------------------------------------------------------------
b) |------------------------------------9876-----|---------------7------------------7---------9876-------------
g) |------------------------------------xxxx-----|-------------------9------------------9-----xxxx-------------
d) |---------7-7------9-8-7-------7-----9876-----|-----9bh11--------------9bh11---------------9876-------------
a) |---7s9---------9------------9----------------|-------------------------------------------------------------
e) |---------------------------------------------|-------------------------------------------------------------

Comments