Toby Keith - I Wanna Talk About Me Chords & Tabs

 

I Wanna Talk About Me Chords & Tabs

Toby Keith Chords & Tabs

Version: 1 Type: Tab 0 ratings
1 star 2 stars 3 stars 4 stars 5 stars
comments

I Wanna Talk About Me Tab

Here is the Intro,I was to lazy to tab the rest So Sorry.

Tabed by: Atcobigdaddy

First Time
e-------------------------------------------------
B-------------------------------------------------
G-------------------------------------------------
D-------------------5---------------------3-------
A----------3--3-5/7------------3-------3h5--------
E---0--3h5--------------0--3h5---6-6--------------
[ Tab from: http://www.guitartabs.cc/tabs/t/toby_keith/i_wanna_talk_about_me_tab.html ]
Second Time
e-------------------------------------------------
B-------------------------------------------------
G------------------------7-5/7--------------------
D-------------------5----7-5/7--------------------
A----------3--3-5/7------5-3/5--------------------
E---0--3h5----------------------------------------

I can tab song good but i hate trying to Submiting them, But i didn't see this one on here 
so i did submit this one.
Comments