Tobuscus - Tobys Chords & Tabs

 

Tobys Chords & Tabs

Tobuscus Chords & Tabs

Version: 1 Type: Tab 0 ratings
1 star 2 stars 3 stars 4 stars 5 stars
comments

Tobys Tab

Toby's Theme Song
           Drop D Tuning
   
    this is my first tab, so sorry for any mistakes. im pretty sure this is how toby played it.




e|--------------------------------|
B|--------------------------------|
G|--------------------------------|
D|-----5---'F*CK! Shut up..'------|
A|-3/4----------------------------|
D|-4/5----------------------------|



e|--------------------------------|--------------------------------|
B|--------------------------------|--------------------------------|
G|--------------------------------|--------------------------------|
D|------5-7-----------3p0---------|-------5-7---2-2-2/4-4----------|
A|-3/5-5------7\5-5-5-----3p0-----|-3/5-5-------3-3-3/5-5----------|
D|-3/5------0---------------------|-3/5-------0-----------0--------|

e|--------------------------------|--------------------------------|
B|--------------------------------|--------------------------------|
G|--------------------------------|--------------------------------|
D|------5-7-----------3p0---------|-----------------3--------------|
A|-3/5-5------7\5-5-5-----3p0-----|-----------0-3-5---3-3h5--------|
D|-3/5------0---------------------|-3/5-0-3-5----------------------|

[ Tab from: http://www.guitartabs.cc/tabs/t/tobuscus/tobys_tab.html ]
e|-10p8----8----------------------|-10p8----8------8-10/12-10-8-10-|
B|------10---10-8-10-11-10-8-10---|------10---10-8-----------------|
G|------------------------------7-|--------------------------------|
D|--------------------------------|--------------------------------|
A|--------------------------------|--------------------------------|
D|--------------------------------|--------------------------------|

e|-10p8----8----------------------|--------------------------------|
B|------10---10-8-10-11-10-8-10---|-11-10-8------------------------|
G|------------------------------7-|---------10-9----10-9-----------|
D|--------------------------------|--------------10------10-10/12--|
A|--------------------------------|--------------------------------|
D|--------------------------------|--------------------------------|


e|--------------------------------|--------------------------------|
B|--------------------------------|--------------------------------|
G|--------------------------------|--------------------------------|
D|------5-7-----------3p0---------|-------5-7---2-2-2/4-4----------|
A|-3/5-5------7\5-5-5-----3p0-----|-3/5-5-------3-3-3/5-5----------|
D|-3/5------0---------------------|-3/5-------0-----------0--------|

e|--------------------------------|--------------------------------|
B|--------------------------------|--------------------------------|
G|--------------------------------|--------------------------------|
D|------5-7-----------3p0---------|-----------------3--------------|
A|-3/5-5------7\5-5-5-----3p0-----|-----------0-3-5---3-3h5--------|
D|-3/5------0---------------------|-3/5-0-3-5----------------------|



well thats it
Comments