Tobuscus - Tobuscus Theme Chords & Tabs

 

Tobuscus Theme Chords & Tabs

Tobuscus Chords & Tabs

Version: 1 Type: Tab 0 ratings
1 star 2 stars 3 stars 4 stars 5 stars
comments

Tobuscus Theme Tab

   
-------------------------------------------------------------------------------
                             Tobuscus Theme Song
-------------------------------------------------------------------------------
Tabbed by King Kazma
Email: alchemist.94@hotmail.com

I love Tobuscus and this little song is catchy as hell. 
This is the correct tab taken from a video of Toby Turner playing it 
himself, as all the other tabs I've seen have gotten the ending wrong.

Tuning: Drop D

************************************

| /   slide up
| \   slide down
| h   hammer-on
| p   pull-off
| ~   let ring

************************************

e|---------------------------------------------------------------------------|
B|---------------------------------------------------------------------------|
G|---------------------------------------------------------------------------|
D|--------0-5/7--------------3p0-------------0-5/7----2--2-2/4-4-------------|
A|-----------------7\5--5-5-------3p0-----------------3--3-3/5-5-0-----------|
D|---3/5--------0------------------------3/5--------0------------0-----------|
[ Tab from: http://www.guitartabs.cc/tabs/t/tobuscus/tobuscus_theme_tab.html ]
e|---------------------------------------------------------------------------|
B|---------------------------------------------------------------------------|
G|---------------------------------------------------------------------------|
D|-------0-5/7------------3p0----------------------3-------------------------|
A|---------------7\5--5-5-----3p0------------0-3-5----3-3h5------------------|
D|---3/5-------0-------------------3-5-0-3-5---------------------------------|

Solo
e|---10p8p5-8-5----5-6--5----5----10p8p5-8-5----10/12-10-8-10----------------|
B|--------------8---------8------------------8-------------------------------|
G|-----------------------------7---------------------------------------------|
D|---------------------------------------------------------------------------|
A|---------------------------------------------------------------------------|
D|---------------------------------------------------------------------------|

e|---10p8p5-8-5----5-6--5---5----6-5-----------------------------------------|
B|--------------8---------8----------8-6-5----6-5----------------------------|
G|----------------------------7-------------5-----5-5h7----------------------|
D|---------------------------------------------------------------------------|
A|---------------------------------------------------------------------------|
D|---------------------------------------------------------------------------|


************************************
Comments