Toasters - Friends Chords & Tabs

 

Friends Chords & Tabs

Toasters Chords & Tabs

Version: 1 Type: Bass Tab 0 ratings
1 star 2 stars 3 stars 4 stars 5 stars
comments

Friends Bass Tab

BAND: TOASTERS
SONG: FRIENDS
ALBUM: HARD BAND FOR DEAD
TABBED BY JON SCHROTH

for other ska bass tabs come to www.connix.com/~dschroth/Jon/Skankin'_Bass.htm

use drop D tuning
[ Tab from: http://www.guitartabs.cc/tabs/t/toasters/friends_btab.html ]
intro
E----3-------------------------------------------------------------
D----3---3---------------------------------------------------------
A--------3--------------3--5----------1------------3--5------------
D-----------0-----3--5--------0h3--5-----3---3--5--------5-5-3-7\0-


main part
E-----------------------------------------------------------
D-----------------------------------------------------------
A-----------------3--------5--5--------3--5--5-------1------
D--5--2--0--2--0-----5--3--------3--0-----------0h3-----3---

that's about it, it goes back and forth and changes around a
bit but that is the basic idea

tabbed by: jon@schrothsys.connix.com


Comments