Toadies - Sweetness Chords & Tabs

 

Sweetness Chords & Tabs

Toadies Chords & Tabs

Version: 1 Type: Tab 0 ratings
1 star 2 stars 3 stars 4 stars 5 stars
comments

Sweetness Tab

   
This is "Sweetness" from the Toadies' "Hell Below, Stars Above" album.
It's off their website, so I know it's right. If you questions, e-mail
me at commyx@hotmail.com.


Tuning: Standard

main lick
D ----0-----------0-----0------------
A -------------3------------------3-3-
E 1-1---1-2-2-------1-1----1-2-2-----

build up
E -0-0-0-0-0-0-0
B -3-3-3-3-3-3-3
G -2-2-2-2-2-2-2
D -0-0-0-0-0-0-0
A -0-0-3-0-0-0-3
E -x-x-x-x-x-x-x

(repeat 2X) then:

E -0- E -0-
B -6- (strum fast for 7 beats) then B -7- for 1 beat
G -5- G -6-
D -0- D -0-

riff between build up and chorus:
E -2-2-3-3-4-4-5-
[ Tab from: http://www.guitartabs.cc/tabs/t/toadies/sweetness_tab.html ]
chorus:
D -8---8-9---9-8---8-9-9
A -8---8-8---8-8---8-8-8 (repeat)
E -6---6-7---7-6---6-7-7

break:

A ----------2-2
E -1-1-4-4---- 
(repeat)

noisy solo bit (play w/ obnoxious whammy bar)
E -13-13-13-13-------------13-----13------13---------------------------------------
B -------------12-12----------12-----12------12------------------------------------
G -------------------11-11-------11-----11------11---------------------------------
D ---------------------------------------------------------------------------------
A ---------------------------------------------------------------------------------
E ------------------------------------------------555555^66666666^55555555^66666666

And that's it. This song rules and is fairly easy so have fun.
Comments