Toadies - Heel Chords & Tabs

 

Heel Chords & Tabs

Toadies Chords & Tabs

Version: 1 Type: Tab 0 ratings
1 star 2 stars 3 stars 4 stars 5 stars
comments

Heel Tab

esta cancion es muy buena  HEEL TOADIES!!!!

me falto el intro !! pero para eso tienen oido!!!
[ Tab from: http://www.guitartabs.cc/tabs/t/toadies/heel_tab.html ]
verso/coro
e--------------------------------
B--------------------------------
G-----6----3----4----------------
D-3---6----3----4----------------
A-3---4----1----2----------------
E-1------------------------------

PUENTE
e-------------------------
B--------------------------
G--3---------------------
D--3----2------------------
A--1----2-------------------
E-------0-----------------


SOLO SIGAN LA CANCION PARA GUIARSE 

SI TIENEN DUDAS O QUIEEN DECIR COMO APESTO ESCRIBAME A: zephiano@hotmail.com
Comments