Toadies - Dollskin Chords & Tabs

 

Dollskin Chords & Tabs

Toadies Chords & Tabs

Version: 2 Type: Bass Tab 0 ratings
1 star 2 stars 3 stars 4 stars 5 stars
comments

Dollskin Bass Tab

intro and verse
G||---------------------------------------------------------------|
D||---------------------------------------------------------------|
A||-----------4-------------------------9-7----4------------------|
E||-0-0-0-0-4---5-5---5-5-5-5/7--7-7-7-------5---4----------------|

[ Tab from: http://www.guitartabs.cc/tabs/t/toadies/dollskin_btab_ver_2.html ]
"catch that light....."
G||---------------------------------------------------------------|
D||---------------------------------------------------------------|
A||--4-4-4--------------------------------------------------------|
E||--------7-5-0-0---0-0------------------------------------------|


"crawls in and tells them............"
G||---------------------------------------------------------------|
D||---------------------------------------------------------------|
A||--4-4--4-------------------------------------------------------|
E||--------7-7-0-7-7-7-7/5-5-5-5-0-0-0-0--------------------------|
Comments