Toadies - Dollskin Chords & Tabs

 

Dollskin Chords & Tabs

Toadies Chords & Tabs

Version: 1 Type: Bass Tab 0 ratings
1 star 2 stars 3 stars 4 stars 5 stars
comments

Dollskin Bass Tab

   
-------------------------------------------------------------------------
			     DOLLSKIN - Toadies
-------------------------------------------------------------------------

Tabbed By : megaderrick	
e-mail: megaderrick@yahoo.com

Tuning: Standard 

Here's the opening, I'll try to show the approximate timing of it:

(bass comes into the song at 0:04)-
G|--------------------------------------------------------------------------|
D|---------------------------------------4----------------------------------|
A|------------------4--0-0--0-0-2-2-2--2---0--4-----------------------------|
E|--0-0-0--0-0-0-4-------------------------------4-4--4-4-------------------|


Play the above part twice for the intro, then it goes into the main part, 
which is played throughout the rest of the song (verses and the first half 
of each chorus):
[ Tab from: http://www.guitartabs.cc/tabs/t/toadies/dollskin_btab.html ]
G|--------------------------------------------------------------------------|
D|--------------------------------------------------------------------------|
A|------------------4--0-0--0-0-2-2-2--2-2-2-0--4---------------------------|
E|--0-0-0--0-0-0-4---------------------------------4-4--4-4-----------------|


And this part is played during the second half of each chorus, along with 
the final chorus/outro thing:

G|-------(twice:)-----------------(then:)-----------------------------------|
D|--------------------------------------------------------------------------|
A|--4-4---2-2--------------------4-4---2-2----------------4-4---2-2---------|
E|-------------0---0-0-0--------------------0-0--5--5-5--------------0------|


Those are all the parts you need to know, just listen to the song to figure 
out when to alternate them, it's pretty easy.  Enjoy



| /  slide up
| \  slide down
| h  hammer-on
| p  pull-off
| ~  vibrato
| +  harmonic
| x  Mute note
==========================================================================
Comments