Toad The Wet Sprocket - Wrapped In Water Chords & Tabs

 

Wrapped In Water Chords & Tabs

Toad The Wet Sprocket Chords & Tabs

Version: 1 Type: Tab 1 rating
1 star 2 stars 3 stars 4 stars 5 stars
comments

Wrapped In Water Tab

#----------------------------------PLEASE NOTE---------------------------------#
#This file is the author's own work and represents their interpretation of the #
#song. You may only use this file for private study, scholarship, or research. #
#------------------------------------------------------------------------------##
From: Steve1386@aol.com
Date: 09.15.05
Subject: Toad the Wet Sprocket "Wrapped in Water"


Song By: Toad the Wet Sprocket - Wrapped in Water


done by: Steve (Steve1386@aol.com)


Verse
E---------4-----5-5--5---------4-----5-5--55---------------
B---------5-----5-5--5---------5-----5-5--55---------------
G---------------2-2--2---------------2-2--22---------------
D---------------2-0--0---------------2-0--00---------------
A--2~4-----------------2~4---------------------------------
E------2(hold)-------------2(hold)-------------------------

[ Tab from: http://www.guitartabs.cc/tabs/t/toad_the_wet_sprocket/wrapped_in_water_tab.html ]
Prechorus
E----4---5-----4---5-----2---4-----------------------------
B----5---5-----5---5-----2---4-----------------------------
G----2---2-----2---2-----4---4-----------------------------
D--2-2-------2-2---------4---6-----------------------------
A------------------------2---6-----------------------------
E--------2---------2-----2---4-----------------------------


Chorus
E--2-----0-----2-----0------------5-----7-----5-----7------
B--3-----0-----3-----0------------5-----7-----5-----7------
G--2-----1-----2-----1-----OR-----7-----9-----7-----9------
D--0-----2-----0-----2------------7-----9-----7-----9------
A--------2-----------2------------5-----7-----5-----7------
E--------x-----------x------------5-----7-----5-----7------



Postchorus                       
E----0---00---0-----0-----2--------------------------------
B----2---02---2-----2-----3--------------------------------
G-------------------------2--------------------------------
D-------------------------0--------------------------------
A-----------0---2-4---2------------------------------------
E--2---4---------------------------------------------------


Outro
E-----------0-------0-------0------5-----------------------
B----2--------2-------2-------2----5-----------------------
G------2---------------------------2-----------------------
D------------------0---------------2-----------------------
A----------0--------------4--------0-----------------------
E--2-------------------------------------------------------
Comments