Toad The Wet Sprocket - Somethings Always Wrong Chords & Tabs

 

Somethings Always Wrong Chords & Tabs

Toad The Wet Sprocket Chords & Tabs

Version: 1 Type: Tab 0 ratings
1 star 2 stars 3 stars 4 stars 5 stars
comments

Somethings Always Wrong Tab

   
#----------------------------------PLEASE NOTE---------------------------------#
#This file is the author's own work and represents their interpretation of the #
#song. You may only use this file for private study, scholarship, or research. #
#------------------------------------------------------------------------------#
Something's Always Wrong
by Toad the Wet Sprocket
from the 1994 release _Dulcinea_

contributed by Ryan Houlette


Capo on the fourth fret.


[the riff]

--9-6---6-0---0----------------9-6---6-0---0------------------
--7-7---7-6---6-6-6h7-7p6------7-7---7-6---6-6-6h7------------
--8-8---8-6---6-6-6h8-8p6------8-8---8-6---6-6-6h8------------
----------------6-6h8-8p6--------------------6-6h8------------
6-------------------------------------------------------------
--------------------------------------------------------------

[intro]

G  A  Gbm  Bm  A

G  A  Bm  A  E

[verse1]  G  A  Gbm  Bm  E

[chorus] G D A Bm

[verse2] same as above

[chorus] same ---------

[ Tab from: http://www.guitartabs.cc/tabs/t/toad_the_wet_sprocket/somethings_always_wrong_tab.html ]
bridge]
G         A       Gbm    Bm   A
Li - ah - ha - ah                       (something like that :-) )
G         A       Bm     A    E
Li - ah - ha - ah
G         A       Gbm    Bm   A
Li - ah - ha - ah
G         A       Bm     A    E
Li - ah - ha - ah


[chorus] (Again)

[play riff here]

[repeat intro chords until done]



***************************************************************************************************************

***************************************************************************************************************


Someone requested this a week or so ago -- sorry, it took awhile to chart:


SOMETHING'S ALWAYS WRONG       - Toad the Wet Sprocket


INTRO:
(my own interpretation; they use more harmonics and/or keyboard (bell) tones)
   Em                              Em  
e----7-5----5-2----2------------/----7-5----5-2----2----------------
B----8-7----7-3----3-3-3-5-5-3--/--x-8-7----7-3----3-3-3-5-3---3----
G--x-----------------2-2-4-4-2--/--x-----------------2-2-4-2h4-2p0--
D--2----------------------------/--2--------------------------------
A--2------x------x--------------/--2------x------x------------------
E--0------0------0--------------/--0------0------0------------------

 C   D   Bm   Em   D/F#bass

 C   D   Em   D    A/C#bass


J Smith
Sunnyvale, CA


*******************************************************************************************************************

*******************************************************************************************************************




Comments