Toad The Wet Sprocket - Silo Lullaby Chords & Tabs

 

Silo Lullaby Chords & Tabs

Toad The Wet Sprocket Chords & Tabs

Version: 1 Type: Tab 0 ratings
1 star 2 stars 3 stars 4 stars 5 stars
comments

Silo Lullaby Tab

   
-------------------------------------------------------------------------------
Silo Lullaby
By
Toad the Wet Sprocket

-------------------------------------------------------------------------------
Tabbed by: kablam007
Email: ssimmons@thiel.edu

Tuning: Standard with Capo on 2ND Fret
Acoustic Guitar
Intro                               Let Ring
e|-------------------------------------3------------------------------------|
B|--------0----------------------------3---------------------0--------------|
G|-----------0------2--0-----------0---0-------------------------0----------|
D|--------------0---------0---2----0---------------------------------0------|
A|---0------------------------0-------------------------0-------------------|
E|--------------------------------------------------------------------------|

e|---------------3----------------------------------------------------------|
B|---------------3----------------------------------------------------------|
G|----2--0-------0-----------2X---------------------------------------------|
D|----------2---------------------------------------------------------------|
A|--------------------------------------------------------------------------|
E|--------------------------------------------------------------------------|

Verse                          Let Ring          8th time
e|-------------------------3-------3-------------------0--------------3-----|
B|--------------0----------3-------3----------------------3----3------3-----|
G|------------------0------2-------0-----7X---------------0----2------0-----|
D|-------------------------0-------2---------------------------0------2-----|
A|---------0-----------------------3--------------0-------------------3-----|
E|--------------------------------------------------------------------------|

Chorus
"Good Night,                    don't fear...                      I  always will
e|----3----3----33----3----3----33----1----1----11----1----1----11-----------|
B|----3----3----33----3----3----33----1----1----11----1----1----11-----------|
G|----0----0----00----2----2----22----2----2----22----2----2----22----0----0-|
D|----0----0----00----0----0----00----3----3----33----3----3----33----2----2-|
A|----2----2----22----0----0----00----3----3----33----3----3----33----2----2-|
E|----3----3----33----2----2----22----1----1----11----1----1----11----0----0-|
[ Tab from: http://www.guitartabs.cc/tabs/t/toad_the_wet_sprocket/silo_lullaby_tab.html ]
 watch   over you,  my  dear....                     Good  Night...
e|-----------------------3----3----33----3----3----33----3----3----33----3-3-|
B|-------0----0----00----3----3----33----3----3----33----3----3----33----3-3-|
G|-00----0----0----00----0----0----00----0----0----00----0----0----00----2-2-|
D|-22----0----0----00----2----2----22----2----2----22----0----0----00----0-0-|
A|-22----2----2----22----3----3----33----3----3----33----2----2----22----0-0-|
E|-00----3----3----33----0----0----00----0----0----00----3----3----33----2-2-|

      Sleep well...                I'll see you with the rest of them in hell
e|----33------------------------------------3----3----33----3----3----33---3-|
B|----33----0----0----00----0----0----00----3----3----33----3----3----33---3-|
G|----22----2----2----22----2----2----22----0----0----00----0----0----00---0-|
D|----00----1----1----11----1----1----11----2----2----22----0----0----00---2-|
A|----00----2----2----22----2----2----22----3----3----33----2----2----22---2-|
E|----22----0----0----00----0----0----00----0----0----00----3----3----33---0-|


E|--3----33----3----3----33-------------------------------------------------|
B|--3----33----0----0----00-------------------------------------------------|
G|--0----00----0----0----00-------------------------------------------------|
D|--2----22----2----2----22-------------------------------------------------|
A|--2----22----2----2----22-------------------------------------------------|
E|--0----00----0----0----00-------------------------------------------------|


Play Intro one time through
Verse 2
Chorus

Outro
     And so...          for now...   farewell
e|------------------------3-----------7---777---7----10---7-----33----------|
B|-------0----------------3-----------8---888---8----8----8-----33----------|
G|-------2----------------2-----------7---777---7----7----7-----004X-------|
D|-------2----------------2-------------------------------------22----------|
A|-------3----------------0-------------------------------------33----------|
E|-------0----------------0-------------------------------------00----------|


Verse 1
Green buttons like a lantern
Illuminates this cavern
And outside nothing matters anymore
My instinct won't deceive me
My senses will not leave me
When there's no one left to grieve me
I won't mourn

Chorus
Good night, don't fear
I always will watch over you, my dear
Good night, sleep well
I'll see you with the rest of them in hell.

Verse 2
My hand won't shake the console
My hand cuff will not rattle
As I win the final battle of all wars
And down beneath the ocean
I'll dream of wings in motion
A blinding glory
That'll show 'em what freedom's for


| /  slide up
| \  slide down
| h  hammer-on
| p  pull-off
| ~  vibrato
| +  harmonic
| x  Mute note
============================================================================
Comments