Toad The Wet Sprocket - Pray Your Gods Chords & Tabs

 

Pray Your Gods Chords & Tabs

Toad The Wet Sprocket Chords & Tabs

Version: 1 Type: Tab 0 ratings
1 star 2 stars 3 stars 4 stars 5 stars
comments

Pray Your Gods Tab

#----------------------------------PLEASE NOTE---------------------------------#
#This file is the author's own work and represents their interpretation of the #
#song. You may only use this file for private study, scholarship, or research. #
#------------------------------------------------------------------------------#
From: "CHOOSE YOUR OWN CTHONIAN #27 : FEEDING FRENZY" 

Pray Your Gods
by Toad the Wet Sprocket
(the Fear album)

contributed by Ryan Houlette
rhoulett@depauw.edu
Write me if you use this.


This song is mostly an arpeggiated chord over the verses
and a strummed chorus.  On the arpeggiation, you basically
just walk the bass note to the chord.

[intro]

-------------------------------------------------------
---------3----------------3----------------3-----------
-----0-------0--------0-------0--------0-------0-------
---4---4---4---4----4---4---4---4----4---4---4---4-----
-2----------------0------------------------------------
-----------------------------------3-------------------


[ Tab from: http://www.guitartabs.cc/tabs/t/toad_the_wet_sprocket/pray_your_gods_tab.html ]
-------------------
-------------------
-----0--------0----
---4---4----4---4--
----------0--------
-3----------------- (repeat 2x)


[verse]

-------------------------------------------------------
---------3----------------3----------------3-----------
-----0-------0--------0-------0--------0-------0-------
---4---4---4---4----4---4---4---4----4---4---4---4-----
-2----------------0------------------------------------
-----------------------------------3-------------------


-------------------------------------------------------
---------3----------------3----------------3-----------
-----0-------0--------0-------0--------0-------0-------
---4---4---4---4----4---4---4---4----4---4---4---4-----
-0-----------------------------------------------------
------------------3----------------0-------------------


-----------------------------------
---------3----------------3--------
-----0-------0--------0-------0----
---4---4---4---4----4---4---4---4--
-2----------------0----------------
-----------------------------------  (repeat whole thing over verse)
Comments