Toad The Wet Sprocket - I Will Not Take Chords & Tabs

 

I Will Not Take Chords & Tabs

Toad The Wet Sprocket Chords & Tabs

Version: 1 Type: Tab 0 ratings
1 star 2 stars 3 stars 4 stars 5 stars
comments

I Will Not Take Tab

   
#----------------------------------PLEASE NOTE---------------------------------#
#This file is the author's own work and represents their interpretation of the #
#song. You may only use this file for private study, scholarship, or research. #
#------------------------------------------------------------------------------#


Date: Thu, 8 Feb 1996 11:33:07 -0500 (EST)
From: "Michael A. Mazur" 
Subject: TAB: "I will not take these things for granted" Toad the wet Sprocket


Tab: "I will not take these things for granted"
     by Toad the Wet Sprocket
     Transcribed by Michael Mazur (mmazur@wpi.edu)


All guitars are capoed at second fret.
Intro and verses:

Gmaj7                                                                 
|--------------------------------------------------|
|-------------(0)----------------------------------|
|--------------0-----------------------0-----------|
|--------4-----------4-----------4-----------4-----|
|--5-----------------------5-----------------------|
|-----3-----3-----3-----3-----3-----3-----3-----0--|  
[ Tab from: http://www.guitartabs.cc/tabs/t/toad_the_wet_sprocket/i_will_not_take_tab.html ]
Fmaj7                                                                 
|--------------------------------------------------|
|-------------(1)----------------------------------|
|--------------0-----------------------0-----------|
|--------2-----------2-----------2-----------2--0--|
|--3-----------------------3-----------------------|
|-----1-----1-----1-----1-----1-----1-----1--------|
                                                                 

The notes in parenthesis are only played during the verses. During
the secong and third verses, another guitar comes in and strumg G-F 
over these two figures.

At the end of the verses, the last measure is an E chord changing 
to Esus, and back again to E:

|-------------|
|--0-------0--|
|--1--1h2--1--|
|--2--2----2--|
|--2--2----2--|
|--0--0----0--|


The last verse and prechorus are the same as before. The ending
chorus - solo is just the below line, played over C - G, repeated
until the fade out.

C (played 3x)                      C          G    
|--------------------------------||--------------|
|-----------1--0--1--0--1/3--1---||--0--1--0--0--|
|*-------0----------------------*||-----------0--|
|*--0h2-------------------------*||-----------0--|
|--------------------------------||--------------|
|--------------------------------||--------------|


                                       
Comments