Toad The Wet Sprocket - Hold Her Down Chords & Tabs

 

Hold Her Down Chords & Tabs

Toad The Wet Sprocket Chords & Tabs

Version: 1 Type: Tab 0 ratings
1 star 2 stars 3 stars 4 stars 5 stars
comments

Hold Her Down Tab

   
#----------------------------------PLEASE NOTE---------------------------------#
#This file is the author's own work and represents their interpretation of the #
#song. You may only use this file for private study, scholarship, or research. #
#------------------------------------------------------------------------------#
From: "John S. Jacob" 
Subject: TAB: "Hold Her Down" by Toad the Wet Sprocket

"Hold Her Down"
---------------
by Todd Nichols, Glen Phillips and Toad The Wet Sprocket
As recorded on _Fear_
Transcribed by John S. Jacob 



E     022100
E/G   322100
G     320033
Am    x02210
Am/G  302210
C     x32010
C/B   x2x010
D     xx0232
Dsus4 xx0233


[Riff 1]
     E
e-|-----0-----------------------------
B-|--------0-h2-p0-----------0--------
G-|-----------------1-h2-p1-----------
D-|-----------------------------------
A-|-----------------------------------
E-|--0--------------------------------

     G                 A5
e-|-----------------------------------
B-|-----------------0--------0--------
G-|-----------0-h2--------2-----2-----
D-|-----0-h2-----------------------2--
A-|--------------------0--------------
E-|--3--------------------------------
 
[Riff 2]
     E
e-|-----0-----------------------------
B-|--------0-h2-p0-----------0--------
G-|-----------------1-h2-p1-----------
D-|-----------------------------------
A-|-----------------------------------
E-|--0--------------------------------




[Intro] [Riff1]x2 (acoustic)
        [Riff1]x2 (all instruments)


tacit eight beats)

[Solo]
     G            D            Am           E
e-|------------------------------------------------------
B-|-------15--15-------15--15-------15--15-------15--15--
G-|--/16----------/16----------/16----------/16----------
D-|------------------------------------------------------
A-|------------------------------------------------------
E-|------------------------------------------------------

     G          D         E
e-|------------------------------------------------------
B-|------------------------------------------------------
G-|--16-\14--9--14--14----9------------------------------
D-|------------------------------------------------------
A-|------------------------------------------------------
E-|------------------------------------------------------
[ Tab from: http://www.guitartabs.cc/tabs/t/toad_the_wet_sprocket/hold_her_down_tab.html ]
     G            D            Am           E
e-|------------------------------------------------------
B-|------------------------------------------------------
G-|--/16--14------/16--14------/16----14----13-----------
D-|-----------14-----------14----------------------------
A-|------------------------------------------------------
E-|------------------------------------------------------

     G            D    Am Am/G E
e-|------------------------------------------------------
B-|-------15--15--/15--15-13---12------------------------
G-|--/16----------/16--16-14---13------------------------
D-|------------------------------------------------------
A-|------------------------------------------------------
E-|------------------------------------------------------

     G            D            Am           E
e-|------------------------------------------------------
B-|-------15--15-------15--15-------15--15-------15--15--
G-|--/16----------/16----------/16----------/16----------
D-|------------------------------------------------------
A-|------------------------------------------------------
E-|------------------------------------------------------
     
     G            D            E            E/G
e-|------------------------------------------------------
B-|-------15--15-------15--15-------15--15-------15--15--
G-|--/16----------/16----------/16----------/16----------
D-|------------------------------------------------------
A-|------------------------------------------------------
E-|------------------------------------------------------
     
     G            D            Am           E
e-|------------------------------------------------------
B-|-------15--15-------15--15-------15--15-------15--15--
G-|--/16----------/16----------/16----------/16----------
D-|------------------------------------------------------
A-|------------------------------------------------------
E-|------------------------------------------------------
     

     C    C/B     Am   Am/G    E
e-|------------------------------------------------------
B-|-------15--15-------15--15--15------------x\----------
G-|--/16----------/16----------16------------x\---9\-----
D-|------------------------------------------x\---9\-----
A-|------------------------------------------------------
E-|------------------------------------------------------
     

-- 
  [========== John S. Jacob ==========]
  |    jsjacob@uclink.berkeley.edu    |
  |   jsjacob@cory.eecs.berkeley.edu  |------- Address -----------+
  |     jsjacob@soda.berkeley.edu     | 747C Loma Verde Ave       |
  +-----------------------------------+ Palo Alto CA 94303-4145   |
                                    +-----------------------------+
Comments