Toad The Wet Sprocket - Hold Her Down Chords & Tabs

 

Hold Her Down Chords & Tabs

Toad The Wet Sprocket Chords & Tabs

Version: 1 Type: Bass Tab 0 ratings
1 star 2 stars 3 stars 4 stars 5 stars
comments

Hold Her Down Bass Tab

   
Title:Hold Her Down
Artist:Toad the Wet Sproket

Here is what I could figure out from the bass figure on one rockin’ 
song!

Standard tuning...

Verse		
E:-0-0-3-3-2-5-3-

Chours
E:-0-0-0--3-3-3--0-0-0-0/2-2/5-5-0-0-0-0-

Verse Intro
A:----------------------------------------------------------5-5-
E:-0-3-5-0-3-5---0-0-0--3-3-3--0-0-0-0--5-5-5------5-3-2-2-

Solo Intro
E:-0-0-0-3-3-5-5-0-
[ Tab from: http://www.guitartabs.cc/tabs/t/toad_the_wet_sprocket/hold_her_down_btab.html ]
Chorus Outro
E:-0-0-0-0--0-0-0-0--3-3-3--5-3-2-0--0-0-0-0-0-

Solo
A:---------5-5-3--------------------------5-5----------
E:-3-3-5---------5-5-3-0-0-2-3-3-5-------0-0-0-

Solo Fill
A:---------5-5-3-----------------5-3-0-------
E:-3-3-5---------5-5-3-0-0-2---------3-0-

Here we go...
Verse x6
Chorus x1
Chorus Outro x1
Verse Intro x1
Verse x6
Chrous x1
Chorus Outro x2
Solo Intro x1
Solo x3
Solo Fill x1
Stinger Ending on E

Tabbed by Mike Greenlese sometime in 1997...
Submitted by bassmike78@hotmail.com

Comments