Toad The Wet Sprocket - Crazy Life Chords & Tabs

 

Crazy Life Chords & Tabs

Toad The Wet Sprocket Chords & Tabs

Version: 1 Type: Tab 0 ratings
1 star 2 stars 3 stars 4 stars 5 stars
comments

Crazy Life Tab

   
Crazy Life - Toad the Wet Sprocket
From: Steven Wiercinski 

Capo IV - Notes in relation to Capo

INTRO - fade in

  Gmaj                 Dmaj
-----------3-----------------2--0--------|
-------------3---3----------------3---3--|
------0--------0----------2---------2----|
--0--------------------0-----------------|
-----------------------------------------|
-----------------------------------------|

  Amin                 Cmaj
-----------------------------0--------------|
---------1-0-------------1-3---3------------|
---0h2-------2---2---------------2----------|
---0h2---------2-------2--------------------|
---------------------3----------------------|
--------------------------------------------|

G    D    Amin   Cmaj
Anyway now it don't seem right
He's in there and your on the outside
etc.

C(II)         D(II)

3 OO---O    5 00---0
  ------      ------
  --OOO-      --OOO-
  ------      ------

Amin   Emin   C(II)  D(II)
In the air I sense another change
etc.
[ Tab from: http://www.guitartabs.cc/tabs/t/toad_the_wet_sprocket/crazy_life_tab.html ]
G     D     Amin  C
It's not over, it's not over

SOLO :  May be a little off, feel free to edit the solo if you figure it out

-----------------------------------------------
-----------------------------------------------
-----7b9r7---------------------7b9r7-----------
------------7b9r7---9--7--9------------7b9r7---
-----------------------------------------------
-----------------------------------------------

-------------------------------------
----------------8b10r8---------------
--------7h9p7-----------7b9r7--------
----7h9------------------------------
-------------------------------------
-------------------------------------

----------------------------------
--------------10b12r12---8b10r8---
------7h9p7-----------------------
--7h9-----------------------------
----------------------------------
----------------------------------

--0-------------------------------------------------
----3--0--------------------------------------------
----------4p2p0-----0-2-0---------------------------
-----------------2----------------------------------
----------------------------------------------------
----------------------------------------------------
Comments