Toad The Wet Sprocket - Come Down Intro Solo Chords & Tabs

 

Come Down Intro Solo Chords & Tabs

Toad The Wet Sprocket Chords & Tabs

Version: 1 Type: Tab 0 ratings
1 star 2 stars 3 stars 4 stars 5 stars
comments

Come Down Intro Solo Tab

   
#----------------------------------PLEASE NOTE---------------------------------#
#This file is the author's own work and represents their interpretation of the #
#song. You may only use this file for private study, scholarship, or research. #
#------------------------------------------------------------------------------#

From Scott975@aol.com Mon May 12 12:51:55 1997
Date: Thu, 24 Apr 1997 19:52:15 -0400 (EDT)
From: Scott975@aol.com
To: guitar@olga.net
Subject: Come Down by Toad the Wet Sprocket

Come Down by Toad the Wet Sprocket
off the album Coil
Transcription by Scott Josselyn (SBJosselyn@aol.com)

*Capo 1st Fret*
*All chords are relative to capo but all tab is relative 
 to nut (i.e. a "1" in tab is an "open" string)

Chords: G=320033  D/F#=200232  Em=0220(3)0  Cadd9=x32033
G/B=x20033  A7sus4=x02233 or 540055
A#6=650066 or x03366*
        Cadd9(use this type to follow A#6)=870088 or xx5588*
        *Guitar 2(Todd) plays arpeggios of these chords while Glenn
          strums the rhythm with the first type

Todd's Riffs:

Riff 1  (intro and over 3rd chorus?)

--1--1---1--1--1-----------1------------------
--6--4--/6--4--1-------1-1-4---1--------------
-----------------------3s5-----1-----3s5--1---
----------------------------------------------
----------------------------------------------
----------------------------------------------

Riff 2   Riff 3
(over all G-A7sus4 progressions)  (over A#6-Cadd9 progressions)   
-13--11---8-----8---4-----       -7---7---7---9---9----9---   
-13--11---9-----9---4-----       --7---7-------9---9-------   
-10---8---1-----1---1-----       ---4---4-------6---6------   
--------------------------       --------------------------
--------------------------       --------------------------
--------------------------       --------------------------       

     
[ Tab from: http://www.guitartabs.cc/tabs/t/toad_the_wet_sprocket/come_down_intro_solo_tab.html ]
Song opens with feedback on an open A chord then:

Intro: 

G-D/F#-Em-Cadd9-G/B-A7sus4  x2   


Solo*:

(Chords:G-A7sus4 x3  A#6-Cadd9 x3)  

-/4-4-4--4-4-4-4-4-4-----------/4-4-4--4-3-1---3-4-------------------
-/4-4-4--4-4-4-4-4-4-(times 4)-/4-4-4--4-3-1---3-4-------------------
---------------------------------------------------------------------
---------------------------------------------------------------------
---------------------------------------------------------------------
---------------------------------------------------------------------

---------------------------------------------------------------------
-/12-12-12--/12-12-12-12---14-16-14-12--(times 3 then)--14b(16)------
-/13-13-13--/13-13-13-13---15-16-15-13-------------------------------
---------------------------------------------------------------------
---------------------------------------------------------------------

Chorus:

G D/F# Em            Cadd9 G/B A7sus4 
   won't you come       down, help me stand
G D/F# Em            Cadd9 G/B A7sus4            
   there is healing     in your hands
G D/F# Em            Cadd9 G/B A7sus4
   won't you come       down where i am
G D/F# Em            Cadd9 G/B A7sus4  
   words all leave me 
           A7sus4                            
   been away to long
                       A7sus4                 
   i know i've been away to long
                    A7sus4        A7sus4
   i know i have

*the solo sounds like at least 4 guitars.. one playing rythmn one 
playing riff 2 and two others that i tired to tab as one guitar...  
Comments