Toad The Wet Sprocket - Begin Chords & Tabs

 

Begin Chords & Tabs

Toad The Wet Sprocket Chords & Tabs

Version: 1 Type: Bass Tab 0 ratings
1 star 2 stars 3 stars 4 stars 5 stars
comments

Begin Bass Tab

   
Mike Nelson


--------------------------------------
"Begin"---Toad The Wet Sprocket.  Dulicea   BTab
          Transcribed by Mike Nelson


Figure (A)

G--------------------|--------------------|----------------|------------
D--------------------|--------------------|----6-----------|------------
A-----------------7--|--5------5-5--5-6-7-|--7---7---------|------------
E----5---0--5-5-5----|------5-------------|--------7--8-7--|------------
[ Tab from: http://www.guitartabs.cc/tabs/t/toad_the_wet_sprocket/begin_btab.html ]
G-----------------------------------------------------------------------
D-----------------------------------------------------------------------
A-----------------------5-7---------------------------------------------
E----5-------7-----8----------------------------------------------------


Figure (B) Repeat 4 times.

G----------------|------------------------------------------------------
D----------------|------------------------------------------------------
A----5-----5-6-7-|----------------5-7-----------------------------------
E----------------|---5---7---8------------------------------------------


Comments