Toad The Wet Sprocket - All I Want Chords & Tabs

 

All I Want Chords & Tabs

Toad The Wet Sprocket Chords & Tabs

Version: 1 Type: Tab 0 ratings
1 star 2 stars 3 stars 4 stars 5 stars
comments

All I Want Tab

   
#----------------------------------PLEASE NOTE---------------------------------#
#This file is the author's own work and represents their interpretation of the #
#song. You may only use this file for private study, scholarship, or research. #
#------------------------------------------------------------------------------#
Date: Thu, 17 Aug 1995 02:10:33 -0700 (PDT)
From: Isaac Lee 
Subject: TAB: "All I Want" by Toad The Wet Sprocket

Toad the Wet Sprocket  - All I Want

tabbed by Isaac Lee (iclee@ucdavis.edu)

Chords:
Intro:
Dm  F  C  Am (repeat several times)
Dm  Am  Bb
Chorus:
C  Am  Dm  G
C  Am  Dm  Em  F
Bridge:
who cares?


Acoustic Over Intro:
E-1---0-----------0-|-----------------3---|
B-3---3-3---1---3-1-|-0-1--0-1---0-1--1-1-|
G-2---2-2---2---2-2-|-0-0--0-0---2-2--2-2-|   Repeat over and over
D-0---0-0---3---3---|-2-2--2-2---2-2--2-2-|         
A-------------------|-3----------0--------|     
E-------------------|---------------------|



(The air outside so soft...)
E-0-1--0------------0-|------------------3-------|----------0------3----|
B--------3---1--1/3---|-0-1--0-1---1p0-----0h1p0-|-1-1--1/3------1----1-|
G---------------------|----------------0---------|-------------2--------|
D---------------------|--------------------------|----------------------|
A---------------------|--------------------------|----------------------|
E---------------------|--------------------------|----------------------|

E-------------1-------|
B----1-------3--------|
G------3----3---------|
D----------3----------|
A---------------------|
E---------------------|
[ Tab from: http://www.guitartabs.cc/tabs/t/toad_the_wet_sprocket/all_i_want_tab.html ]
Chorus:
E----------------------|---1-----1---------------|
B---1-----1----1-----1-|------1-------0-0--1---3-|
G----------------------|-------------------------|
D------2----------2----|-------------------------|
A----------------------|-------------------------|
E----------------------|-------------------------|

E----------------------|---1-----1----0--0-0-|-0----|
B---1-----1----1-----1-|------1-------0--0-0-|-1----|
G----------------------|--------------1--2-1-|-2----|
D------2----------2----|--------------2--2-2-|-3----|
A----------------------|---------------------|------|
E----------------------|---------------------|------|

Intro to second verse:
E---1--0--------------0-|------------------3----|
B--------3---0-1--1/3---|-0-1--0----1p0---------|
G----------2------------|--------0------0-------|
D-----------------------|-----------------------|
A-----------------------|-----------------------|
E-----------------------|-----------------------|

Figure out the rest by your lonesome.  Comments are welcome.



***************************************************************************************************************

***************************************************************************************************************



From: Dan_Margalit@brown.edu
I added the solo to this.  kang@stolaf.edu (Joseph S Kang



SOLO
    Dm             F       C         Am7   Dm         Am7       Bb
e:-----------------------------------4--2--1--------------------4--2--1---|
B:--2--2--4--2--------2/4--4/6--6/2-----------2--2/4--4/6--6/2-----------4|
G:--------------3--1------------------------------------------------------|
D:------------------------------------------------------------------------|
A:------------------------------------------------------------------------|
E:------------------------------------------------------------------------|


Comments