Tito And Tarantula - Silent Train Chords & Tabs

 

Silent Train Chords & Tabs

Tito And Tarantula Chords & Tabs

Version: 1 Type: Tab 0 ratings
1 star 2 stars 3 stars 4 stars 5 stars
comments

Silent Train Tab

   
Tito & Tarantula - Silent Train


Intro: 4x
	
e|----------------|----------------|
H|-------6--------|-------6--------|
G|-----8------6---|-----8------6---|
D|---8------8-6---|---8-----8--6---|
A|-6----------4---|-6----------4---|
E|----------------|----------------|


Verse:

e|----------------|----------------|----------------|----------------|
H|-------6--------|-------6--------|-------6--------|-------6--------|
G|-----8------6---|-----8------6---|-----8------6---|-----8------6---|
D|---8------8-6---|---8-----8--6---|---8------8-6---|---8-----8--6---|
A|-6----------4---|-6----------4---|-6----------4---|-6----------4---|
E|----------------|----------------|----------------|----------------|
	  I'm wearing my best suit   with an arm full of roses

e|----------------|----------------|----------------|----------------|
H|-------6--------|-------6--------|-------6--------|-------6--------|
G|-----8------6---|-----8------6---|-----8------6---|-----8------6---|
D|---8------8-6---|---8-----8--6---|---8------8-6---|---8-----8--6---|
A|-6----------4---|-6----------4---|-6----------4---|-6----------4---|
E|----------------|----------------|----------------|----------------|
	  a binge is in the cards            and I know it


e|----------------|----------------|----------------|----------------|
H|-------4--4-----|-------3--3-----|-------4--4-----|-------3--3-----|
G|-----4------4---|-----3------3---|-----4------4---|-----3------3---|
D|---4----------4-|---3----------3-|---4----------4-|---3----------3-|
A|-2--------------|-1--------------|-2--------------|-1--------------|
E|----------------|----------------|----------------|----------------|
  every blur   is a passing town    every silent      slur profound




e|----------------|----------------|----------------|----------------|
H|-------6--------|-------6--------|-------6--------|-------6--------|
G|-----8------6---|-----8------6---|-----8------6---|-----8------6---|
D|---8------8-6---|---8-----8--6---|---8------8-6---|---8-----8--6---|
A|-6----------4---|-6----------4---|-6----------4---|-6----------4---|
E|----------------|----------------|----------------|----------------|
I wrote you a song  but I forgot it while i was away  did you miss me     

e|----------------|----------------|----------------|----------------|
H|-------6--------|-------6--------|-------6--------|-------6--------|
G|-----8------6---|-----8------6---|-----8------6---|-----8------6---|
D|---8------8-6---|---8-----8--6---|---8------8-6---|---8-----8--6---|
A|-6----------4---|-6----------4---|-6----------4---|-6----------4---|
E|----------------|----------------|----------------|----------------|
i need a drink     before I see you          my suits getting wrinkled

e|----------------|----------------|----------------|----------------|
H|-------4--4-----|-------3--3-----|-------4--4-----|----------------|
G|-----4------4---|-----3------3---|-----4------4---|----------------|
D|---4----------4-|---3----------3-|---4----------4-|-3-3-3-3-3-3-3-3|
A|-2--------------|-1--------------|-2--------------|-1-1-1-1-1-1-1-1|
E|----------------|----------------|----------------|----------------|
  I dreamed you    in the rio grande I need a drink  before I go
  drowned          

Refrain:
e|----------------|
H|----------------|
G|----------------|
D|-3-3-3-3-3-3-3-3|
A|-1-1-1-1-1-1-1-1|
E|----------------|
         screaming silent

e|-------2--------|----------------|----------------|----------------|
H|-------2--------|-------3--3-----|----7-797-------|----------------|
G|-----3----3-----|-----3-3----3---|----8-----8-6-8-|----------------|
D|---4------------|---3------------|----------------|----------------|
A|---4------------|-1--------------|-6--------------|-1~~~-----------|
E|-2--------------|----------------|----------------|----------------|
  train                 riding down the mainline            screaming silent


e|-------2--2-----|----------------|-------1--------|----------------|
H|-------2----2---|-------3--3-----|---------1------|----------------|
G|-----3--------2-|-------3----3---|-----7-----7---7|----------------|
D|---4------------|-----6--------3-|---8---------8--|----------------|
A|---4------------|---6------------|----------------|----------------|
E|-2--------------|-4--------------|-6--------------|----------------|
  train         I'm on my way    to see you again


Verse:
[ Tab from: http://www.guitartabs.cc/tabs/t/tito_and_tarantula/silent_train_tab.html ]
e|----------------|----------------|----------------|----------------|
H|-------6--------|-------6--------|-------6--------|-------6--------|
G|-----8------6---|-----8------6---|-----8------6---|-----8------6---|
D|---8------8-6---|---8-----8--6---|---8------8-6---|---8-----8--6---|
A|-6----------4---|-6----------4---|-6----------4---|-6----------4---|
E|----------------|----------------|----------------|----------------|
       I heard a rumor  you disappeared   but I know   better 

e|----------------|----------------|----------------|----------------|
H|-------6--------|-------6--------|-------6--------|-------6--------|
G|-----8------6---|-----8------6---|-----8------6---|-----8------6---|
D|---8------8-6---|---8-----8--6---|---8------8-6---|---8-----8--6---|
A|-6----------4---|-6----------4---|-6----------4---|-6----------4---|
E|----------------|----------------|----------------|----------------|   
 I dreamed you rising   out of the river   on fire     my heart desire


e|----------------|----------------|----------------|----------------|
H|-------4--4-----|-------3--3-----|-------4--4-----|----------------|
G|-----4------4---|-----3------3---|-----4------4---|----------------|
D|---4----------4-|---3----------3-|---4----------4-|-3-3-3-3-3-3-3-3|
A|-2--------------|-1--------------|-2--------------|-1-1-1-1-1-1-1-1|
E|----------------|----------------|----------------|----------------|
 you needed one  to un-der-stood    I need a drink be-fore I go



Refrain:
e|----------------|
H|----------------|
G|----------------|
D|-3-3-3-3-3-3-3-3|
A|-1-1-1-1-1-1-1-1|
E|----------------|
         screaming silent

e|-------2--------|----------------|----------------|----------------|
H|-------2--------|-------3--3-----|----7-797-------|----------------|
G|-----3----3-----|-----3-3----3---|----8-----8-6-8-|----------------|
D|---4------------|---3------------|----------------|----------------|
A|---4------------|-1--------------|-6--------------|-1~~~-----------|
E|-2--------------|----------------|----------------|----------------|
  train                 riding down the mainline            screaming silent


e|-------2--2-----|----------------|-------1--------|----------------|
H|-------2----2---|-------3--3-----|---------1------|----------------|
G|-----3--------2-|-------3----3---|-----7-----7---7|----------------|
D|---4------------|-----6--------3-|---8---------8--|----------------|
A|---4------------|---6------------|----------------|----------------|
E|-2--------------|-4--------------|-6--------------|----------------|
  train         I'm on my way    to see you again



Solo:

e|---------------|
H|-7-9-9/11-9-7--|
G|---------------|
D|---------------|
A|---------------|
E|---------------|

	D#m		F#		G#m		  Bb
e|---------------|----------------|----------------|---------------|
H|-11~~~---------|-----11/9--9-11-|-9--------9-11--|-9~~~-------9--|
G|---------------|---------11-----|----11-11-------|---------11----|
D|---------------|----------------|----------------|---------------|
A|---------------|----------------|----------------|---------------|
E|---------------|----------------|----------------|---------------|

	Dm		F#		G#m		  Bb
e|---------------|----------------|----------------|---------------|
H|-11~11-11-9--11|-----------11-12|-12-------12/11-|-12-12---15-17-|
G|------------9--|----------------|----------------|---------------|
D|---------------|----------------|----------------|---------------|
A|---------------|----------------|----------------|---------------|
E|---------------|----------------|----------------|---------------|



Refrain:

e|----------------|
H|----------------|
G|----------------|
D|-3-3-3-3-3-3-3-3|
A|-1-1-1-1-1-1-1-1|
E|----------------|
         screaming silent

e|-------2--------|----------------|----------------|----------------|
H|-------2--------|-------3--3-----|----7-797-------|----------------|
G|-----3----3-----|-----3-3----3---|----8-----8-6-8-|----------------|
D|---4------------|---3------------|----------------|----------------|
A|---4------------|-1--------------|-6--------------|-1~~~-----------|
E|-2--------------|----------------|----------------|----------------|
  train               riding down the nameless              screaming silent


e|-------2--2-----|----------------|-------1--------|-------1--------|
H|-------2----2---|-------3--3-----|---------1------|---------1------|
G|-----3--------2-|-------3----3---|-----7-----7---7|-----7-----7---7|
D|---4------------|-----6--------3-|---8---------8--|---8---------8--|
A|---4------------|---6------------|----------------|----------------|
E|-2--------------|-4--------------|-6--------------|-6--------------|
train                 I'm on my way  to see you again     screaming silent (-> Outro)


Outro: 10x

e|-------2--2-----|----------------|
H|-------2--------|-------3--3-----|
G|-----3------3---|-----3-3----3---|
D|---4----------4-|---3------------|
A|---4------------|-1--------------|
E|-2--------------|----------------|
  train                 screaming silent


------------------
Chords:

Bb : 01333x
D#m: 068876
F# : 244322
G#m: 466444
------------------
Comments