Tito And Tarantula - Goodbye Sadie Chords & Tabs

 

Goodbye Sadie Chords & Tabs

Tito And Tarantula Chords & Tabs

Version: 1 Type: Tab 0 ratings
1 star 2 stars 3 stars 4 stars 5 stars
comments

Goodbye Sadie Tab

   
Tito & Tarantula - Goodbye Sadie


Intro:

	  Dm		     G	       F		Dm		 G	   F
e|---------------------|------------1--------|---------------------|-------------1-------|
h|------6-6----7-------|------------1--------|------6-6----7-------|-------------1-------|
g|------7---7-7-----5--|-----4-4-------2-----|------7---7-7-----5--|-----4--4-------2----|
d|-----------7-----7---|-----5-5----------3--|-----------7-----7---|-----5--5----------3-|
a|-05-5-----------5----|---------------------|-05-5-----------5----|---------------------|
e|---------------------|-3-3--3--1-----------|---------------------|-3-3---3--1----------|


Verse: 3x

e|---------------------|------------1--------|---------------------|-------------1-------|
h|------6-6----7-------|------------1--------|------6-6----7-------|-------------1-------|
g|------7---7-7-----5--|-----4-4-------2-----|------7---7-7-----5--|-----4--4-------2----|
d|-----------7-----7---|-----5-5----------3--|-----------7-----7---|-----5--5----------3-|
a|-05-5-----------5----|---------------------|-05-5-----------5----|---------------------|
e|---------------------|-3-3--3--1-----------|---------------------|-3-3---3--1----------|


Refrain 1:

	   Bb			  F
e|---------------------|---------------------|
h|------3------3-------|----------------1----|
g|------3---3-3----3---|-----2---2--2-2--2---|
d|-----------3----3-3--|-----3---3--3-3---3--|
a|-01-1----------------|---------------------|
e|---------------------|-1-1-------1---------|
		good-bye sa-dieeee

	   Bb		     F   G
e|---------------------|---------------------|
h|------3------3-------|---------------------|
g|------3---3-3----3---|-----2---3-----------|
d|-----------3----3-3--|-----3---4-----------|
a|-01-1----------------|-----3---4-----------|
e|---------------------|---------------------|
        had enough of your   cra-zyness


	  Bb			  F
e|---------------------|---------------------|
h|------3------3-------|----------------1----|
g|------3---3-3----3---|-----2---2--2----2---|
d|-----------3----3-3--|-----3---3--3-----3--|
a|-01-1----------------|---------------------|
e|---------------------|-1-1-------1---------|
		good-bye darling

	    G
e|---------------------|
h|---------------------|
g|------4---4--4----4--|
d|------5---5--5-----5-|
a|---------------------|
e|--3-3-------3----3---|
     not gonna rain on your parade 

	   Bb
e|---------------------|
h|------3---3--3----3--|
g|------3---3--3-----3-|
d|-----------------3---|
a|-01-1-------1--------|
e|---------------------|
  like an echo  I'll Just fade away


Intro Riff

Verse: 2x

e|---------------------|------------1--------|---------------------|------------1--------|
h|------6-6----7-------|------------1--------|------6-6----7-------|------------1--------|
g|------7---7-7-----5--|-----4-4-------2-----|------7---7-7-----5--|-----4-4-------2-----|
d|-----------7-----7---|-----5-5----------3--|-----------7-----7---|-----5-5----------3--|
a|-05-5-----------5----|---------------------|-05-5-----------5----|---------------------|
e|---------------------|-3-3--3--1-----------|---------------------|-3-3--3--1-----------|


Refrain 2:

	   Bb			  F
e|---------------------|---------------------|
h|------3------3-------|----------------1----|
g|------3---3-3----3---|-----2---2--2-2--2---|
d|-----------3----3-3--|-----3---3--3-3---3--|
a|-01-1----------------|---------------------|
e|---------------------|-1-1-------1---------|
		good-bye sa-dieeee
[ Tab from: http://www.guitartabs.cc/tabs/t/tito_and_tarantula/goodbye_sadie_tab.html ]
	   Bb		     F   G
e|---------------------|---------------------|
h|------3------3-------|---------------------|
g|------3---3-3----3---|-----2---3-----------|
d|-----------3----3-3--|-----3---4-----------|
a|-01-1----------------|-----3---4-----------|
e|---------------------|---------------------|
        had enough of your   cra-zy ways


	  Bb			  F
e|---------------------|---------------------|
h|------3------3-------|----------------1----|
g|------3---3-3----3---|-----2---2--2----2---|
d|-----------3----3-3--|-----3---3--3-----3--|
a|-01-1----------------|---------------------|
e|---------------------|-1-1-------1---------|
		good-bye darling

	    G
e|---------------------|
h|---------------------|
g|------4---4--4----4--|
d|------5---5--5-----5-|
a|---------------------|
e|--3-3-------3----3---|
     not gonna rain on your parade 

	   Bb
e|---------------------|
h|------3---3--3----3--|
g|------3---3--3-----3-|
d|-----------------3---|
a|-01-1-------1--------|
e|---------------------|
  like an echo  I'll Just fade away


Solo:

   Dm			  G
e|-------------8-------|-4/6-----------------|
h|---------------------|---------------------|
g|----------7----------|---------------------|
d|---------------------|---------------------|
a|---------------------|---------------------|
e|---------------------|---------------------|

   Dm			 G
e|------8---6------4/6-|-6-------------------|
h|---------------------|---------------------|
g|---------------------|---------------------|
d|---------------------|---------------------|
a|---------------------|---------------------|
e|---------------------|---------------------|

  Dm			 G
e|------4~~~~~~~----4/-|-3~~-----------------|
h|---------------------|---------------------|
g|---------------------|---------------------|
d|---------------------|---------------------|
a|---------------------|---------------------|
e|---------------------|---------------------|

  Dm			 G
e|------4p3p1p3---1p4/-|-3-------------------|
h|---------------------|---------------------|
g|---------------------|---------------------|
d|---------------------|---------------------|
a|---------------------|---------------------|
e|---------------------|---------------------|


Refrain 1:

Refrain 2:


Outro:
e|---------------------|---------------------|
h|------3------3-------|----------------1----|
g|------3---3-3----3---|-----2---2--2----2---|
d|-----------3----3-3--|-----3---3--3-----3--|
a|-01-1----------------|---------------------|
e|---------------------|-1-1-------1---------|
           like an echo  I'll fade away

e|---------------------|---------------------|
h|------3------3-------|----------------1----|
g|------3---3-3----3---|-----2---2--2----2---|
d|-----------3----3-3--|-----3---3--3-----3--|
a|-01-1----------------|---------------------|
e|---------------------|-1-1-------1---------|
like an echo  I'll just fade away

e|---------------------|---------------------|
h|------3------3-------|----------------1----|
g|------3---3-3----3---|-----2---2--2----2---|
d|-----------3----3-3--|-----3---3--3-----3--|
a|-01-1----------------|---------------------|
e|---------------------|-1-1-------1---------|

12x: (after 9x fade out)

e|---------------------|---------------------|
h|------3------3-------|----------------1----|
g|------3---3-3----3---|-----2---2--2----2---|
d|-----------3----3-3--|-----3---3--3-----3--|
a|-01-1----------------|---------------------|
e|---------------------|-1-1-------1---------|
                  fa-de away (fade away)

End



Note: I'm not sure about the riffs, because it was a bit difficult for me to wrote this
tab by listening to the song.
Comments