Tito And Tarantula - After Dark Chords & Tabs

 

After Dark Chords & Tabs

Tito And Tarantula Chords & Tabs

Version: 3 Type: Tab 0 ratings
1 star 2 stars 3 stars 4 stars 5 stars
comments

After Dark Tab

This is how the intro and the chords and the solo are really played.  I've seen a lot
of dumb fuckers try to figure this out but they're all wrong. Here it is.

Intro:

|-----------------------------|
|---------12-15-12------------|
|---11h14----------14---------|
|---------------------14-12---|
|-----------------------------|
|-----------------------------|


|------7--7-----5--5-----7--7-----5-------------|
|------7--7-----5--5-----7--7-----5-------------|     Play this riff
|------8--8-----6--6-----8--8-----6--6h7p6------|     twice.
|------9--------7--------9--------7---------7---|
|------9--------7--------9--------7-------------|
|---7--7-----5--5-----7--7-----5--5-------------|


|------7--7-----5--5-----7--7-----5--5----------|
|------7--7-----5--5-----7--7-----5--5----------|     Then play this over
|------8--8-----6--6-----8--8-----6--6----------|     the lyrics.
|------9--------7--------9--------7-------------|
|------9--------7--------9--------7-------------|
|---7--7-----5--5-----7--7-----5--5-------------|


Solo: (played with wah and lots of reverb)
[ Tab from: http://www.guitartabs.cc/tabs/t/tito_and_tarantula/after_dark_tab_ver_3.html ]
|------------------------------------------------------|
|------------------------------------------------------|
|-------11-9---------------------------11-9-9----------|
|-------------9~-------------------------------9/129~--|
|-7-9------------------------7-7--9~-------------------|
|------------------7-7-10-10---------------------------|

|-----------------------------------------------------------|
|---------------------------------10b-----------------------|
|-9b(11)r--9b(11)r--9b(11)-----11-----11t--------------9----|
|-------------------------9~----------------9-9-12-12----9~-|
|-----------------------------------------------------------|
|-----------------------------------------------------------|

|----10----------10-------------12b--12b(14)-----|
|-12----------------12-12--12~---------------12~-|
|------------------------------------------------|
|-------7-9-9------------------------------------|
|------------------------------------------------|
|------------------------------------------------|

|------------------------|
|------------------------|
|------------11b---------|
|---9/129~------9/129~---|
|------------------------|
|------------------------|    (end of solo)



Ending Riff:

|---7-------------------|
|---7-------------------|
|---7-------------------|     Let this riff ring throughout.
|---7-------------------|
|---7-------------------|
|---7-------------------|
Comments