Timoria - Sole Spento Chords & Tabs

 

Sole Spento Chords & Tabs

Timoria Chords & Tabs

Version: 5 Type: Tab 0 ratings
1 star 2 stars 3 stars 4 stars 5 stars
comments

Sole Spento Tab

   
TIMORIA
SOLE SPENTO
Tab by Dome 

\ Slide
­ Arpeggio Discendente
P.M. Palm Muting
[ Tab from: http://www.guitartabs.cc/tabs/t/timoria/sole_spento_tab_ver_5.html ]
Nota: Per suonare al meglio questo pezzo ascoltate il CD.
Vi aiuterΰ di sicuro, specialmente nella ritmica del ritornello! 
   INTRO
    Em                          A          A4          A  Em
e |----------------------------------------------------------------------------------
b |-------------8--8--8--8-----------------5--5--5--5-----------------8--8--8--8-----
g |----------9--9--9--9--9--9-----------6--7--7--7--7--6-----------9--9--9--9--9--9--
d |------9------9--9--9--9--9-------7------7--7--7--7--7-------9------9--9--9--9--9--
a |--7-----------------------------------------------------7-------------------------
E |-----------------------------5----------------------------------------------------
     A          A4             A
e |-------------------------------
b |-------------5--5--5--5--5-----
g |----------6--7--7--7--7--7--6--
d |------7------7--7--7--7--7--7--
a |-------------------------------
E |--5----------------------------
    
   VERSO1
     Em                         A          A4             A
e |----------------------------------------------------------
b |-------------8--8--8--8-----------------5--5--5--5--5-----
g |----------9--9--9--9--9--9-----------6--7--7--7--7--7--6--
d |------9------9--9--9--9--9-------7------7--7--7--7--7--7-- ( x2 )
a |--7-------------------------------------------------------
E |-----------------------------5----------------------------
     C                               D                                      Em
e |----------------------------------------------------------------------------------------------------
b |--------------5-------5---------------------------7-------7--------------------------8--8--8--8-----
g |----------5-------5-------5-------------------7-------7-------7-------------------9--9--9--9--9--9--
d |------5-----------------------5-----------7-----------------------7-----------9------9--9--9--9--9--
a |--3-------------------------------3---5-------------------------------5---7-------------------------
E |----------------------------------------------------------------------------------------------------
     C                                       Em                     C
e |-----------------------------------------------------------------------------------
b |--------------5-------5--------------------------8--8--8--8-----------------5---5--
g |----------5-------5-------5-------------------9--9--9--9--9--9-----------5------5--
d |------5-----------------------5-----------9------9--9--9--9--9-------5----------5--
a |--3-------------------------------3---7--------------------------3--------------3­-
E |-----------------------------------------------------------------------------------
  
   VERSO2
     Em                         A          A4             A
e |----------------------------------------------------------
b |-------------8--8--8--8-----------------5--5--5--5--5-----
g |----------9--9--9--9--9--9-----------6--7--7--7--7--7--6--
d |------9------9--9--9--9--9-------7------7--7--7--7--7--7-- ( x2 )
a |--7-------------------------------------------------------
E |-----------------------------5----------------------------
     C                               D                                      Em
e |----------------------------------------------------------------------------------------------------
b |--------------5-------5---------------------------7-------7--------------------------8--8--8--8-----
g |----------5-------5-------5-------------------7-------7-------7-------------------9--9--9--9--9--9--
d |------5-----------------------5-----------7-----------------------7-----------9------9--9--9--9--9--
a |--3-------------------------------3---5-------------------------------5---7-------------------------
E |----------------------------------------------------------------------------------------------------
                               
     C                                                       
e |-------------------------------------
b |--------------5-------5--------------
g |----------5-------5-------5----------
d |------5-----------------------5------
a |--3-------------------------------3--
E |-------------------------------------                                                                                     
                                (Dist.)    
                                P.M………………………….
     Em                         C5       D5
e |-----------------------------------------------
b |-------------8--8--8--8------------------------
g |----------9--9--9--9--9--9---5-5-5-5--7-7-7-7--
d |------9------9--9--9--9--9---5-5-5-5--7-7-7-7--
a |--7--------------------------3-3-3-3--5-5-5-5--
E |-----------------------------------------------

    RITORNELLO 
     E5         B5        C5       A5          C5              D5      B5
e |-----------------------------------------------------------------------------
b |-----------------------------------------------------------------------------
g |-------------4-4-4-4-4\5--5-5-5------------ 5-5-5-5-5-5-5-5\7-7-7-7----------
d |--2--2-2-2-0-4-4-4-4-4\5--5-5-5-7-7-7-7-7-0-5-5-5-5-5-5-5-5\7-7-7-7-9-9-9-9--
a |--2--2-2-2-0-2-2-2-2-2\3--3-3-3-7-7-7-7-7-0-3-3-3-3-3-3-3-3\5-5-5-5-9-9-9-9--
E |--0--0-0-0----------------------5-5-5-5-5---------------------------7-7-7-7—-
                                               
     E5         B5        C5       A5          C5       
e |-----------------------------------------------------------------------------
b |-----------------------------------------------------------------------------
g |-------------4-4-4-4-4\5--5-5-5-------------5-5-5-5-5-5-5-5------------------
d |--2--2-2-2-0-4-4-4-4-4\5--5-5-5-7-7-7-7-7-0-5-5-5-5-4-4-4-4-(C5 Rip. x4 )-0--
a |--2--2-2-2-0-2-2-2-2-2\3--3-3-3-7-7-7-7-7-0-3-3-3-3-3-3-3-3---------------0--
E |--0--0-0-0----------------------5-5-5-5-5------------------------------------

RIP. INTRO 
VERSO 3 (COME IL 2)
RITORNELLO 
SOLO VOCALE (RIP. INTRO X 2)

   INTERLUDE
    Em                          C                                  Em
e |------------------------------------------------------------------------------------------
b |-------------8--8--8--8------------------5-------5--------------------------8--8--8--8----
g |----------9--9--9--9--9--9-----------5-------5-------5-------------------9--9--9--9--9--9-
d |------9------9--9--9--9--9-------5-----------------------5-----------9------9--9--9--9--9-
a |--7--------------------------3-------------------------------3---7------------------------
E |------------------------------------------------------------------------------------------
    
    (Dist.)
     P.M……………………………
     C        D
e |--------------------
b |--------------------
g |--5-5-5-5--7-7-7-7--
d |--5-5-5-5--7-7-7-7--
a |--3-3-3-3--5-5-5-5--
E |-----------—--------

RITORNELLO 

FINALE
     E5
e |-----
b |-----
g |-----
d |--2--
a |--2--
E |--0—
Comments