Timoria - Sole Spento Chords & Tabs

 

Sole Spento Chords & Tabs

Timoria Chords & Tabs

Version: 2 Type: Tab 0 ratings
1 star 2 stars 3 stars 4 stars 5 stars
comments

Sole Spento Tab

   
~~~~~~~~~~~~~~~~~~~~~~~~~~~~~~~~~~~~~~~~~~~~~~~~~~~~~~~~~~~~~~~~~~~~~
Timoria - Sole Spento da El topo Grand Hotel
~~~~~~~~~~~~~~~~~~~~~~~~~~~~~~~~~~~~~~~~~~~~~~~~~~~~~~~~~~~~~~~~~~~~~

Intro

      Em                     A
E:-------------------------------------------
B:-----8---8-8-8-8-7------2---3-3-3-3-2------
G:---9---9-9-9-9-9-9----2---2-2-2-2-2-2------
D:-9-------9-9-9-9-9--2-------2-2-2-2-2------
A:-------------------------------------------
E:-------------------------------------------


Strofa:

   Em                           A9  
Ci sono giorni in cui mi sveglio spento
Em                            A9   
E tutto sommato provo a starci dentro
C                              D
Nella mia stanza aspetto il mio momento
    Em          C
Sono qui aspetterò
Em        C      
Io aspetterò 
[ Tab from: http://www.guitartabs.cc/tabs/t/timoria/sole_spento_tab_ver_2.html ]
Ripetete le strofe in questo modo, ma prima del Rit. dopo il DO fate il Re 
in powerchord

Così:

Em        C    D
Io aspetterò

Rit. (Powerchord)

Em           C         Am      C    
Finche arriverà il mio momento stammi accanto
Em           C      Am        
col pensiero tu, tu stammi accanto
C*                           INTRO 
Sole Spento Tu sei dentro di me


* Questo Do va fatto così:

E:--------------------------------------------
B:--------------------------------------------
G:--------------------------------------------
D:--5-5-5-5-4-4-4-4-5-5-5-5-4-4-4-4-----------
A:--3-3-3-3-3-3-3-3-3-3-3-3-3-3-3-3-----------
E:--------------------------------------------


Questa è Sole Spento. Divertitevi

                                                     By GLewton

Chords Used
----------------
A         X02220
Am        X02210 
A9        X02200
C         X32010
D         XXX232
Em        022000
----------------

Comments